  0
SECTION
  2
HEADER
  9
$ACADVER
  1
AC1024
  9
$ACADMAINTVER
 70
   226
  9
$DWGCODEPAGE
  3
ANSI_1250
  9
$LASTSAVEDBY
  1
KOMPUTER6
  9
$INSBASE
 10
0.0
 20
0.0
 30
0.0
  9
$EXTMIN
 10
-0.0000000023988299
 20
-376.3610387715098
 30
0.0
  9
$EXTMAX
 10
560.2966639237851
 20
-1.343301417414521
 30
0.0
  9
$LIMMIN
 10
0.0
 20
-264.1
  9
$LIMMAX
 10
377.39
 20
0.0
  9
$ORTHOMODE
 70
     0
  9
$REGENMODE
 70
     1
  9
$FILLMODE
 70
     1
  9
$QTEXTMODE
 70
     0
  9
$MIRRTEXT
 70
     0
  9
$LTSCALE
 40
1.0
  9
$ATTMODE
 70
     1
  9
$TEXTSIZE
 40
10.0
  9
$TRACEWID
 40
0.05
  9
$TEXTSTYLE
  7
STANDARD
  9
$CLAYER
  8
0
  9
$CELTYPE
  6
Continuous
  9
$CECOLOR
 62
   256
  9
$CELTSCALE
 40
100.0
  9
$DISPSILH
 70
     0
  9
$DIMSCALE
 40
100.0
  9
$DIMASZ
 40
4.0
  9
$DIMEXO
 40
10.0
  9
$DIMDLI
 40
1.0
  9
$DIMRND
 40
0.0
  9
$DIMDLE
 40
2.799999999999999
  9
$DIMEXE
 40
2.799999999999999
  9
$DIMTP
 40
0.0
  9
$DIMTM
 40
0.0
  9
$DIMTXT
 40
5.0
  9
$DIMCEN
 40
0.09
  9
$DIMTSZ
 40
0.0
  9
$DIMTOL
 70
     0
  9
$DIMLIM
 70
     0
  9
$DIMTIH
 70
     0
  9
$DIMTOH
 70
     0
  9
$DIMSE1
 70
     0
  9
$DIMSE2
 70
     0
  9
$DIMTAD
 70
     1
  9
$DIMZIN
 70
     0
  9
$DIMBLK
  1
Oblique
  9
$DIMASO
 70
     1
  9
$DIMSHO
 70
     1
  9
$DIMPOST
  1

  9
$DIMAPOST
  1

  9
$DIMALT
 70
     0
  9
$DIMALTD
 70
     2
  9
$DIMALTF
 40
25.4
  9
$DIMLFAC
 40
10.0
  9
$DIMTOFL
 70
     1
  9
$DIMTVP
 40
0.0
  9
$DIMTIX
 70
     0
  9
$DIMSOXD
 70
     0
  9
$DIMSAH
 70
     0
  9
$DIMBLK1
  1

  9
$DIMBLK2
  1

  9
$DIMSTYLE
  2
SPECBUD_1_20_mm
  9
$DIMCLRD
 70
   256
  9
$DIMCLRE
 70
   256
  9
$DIMCLRT
 70
   256
  9
$DIMTFAC
 40
1.0
  9
$DIMGAP
 40
1.5
  9
$DIMJUST
 70
     0
  9
$DIMSD1
 70
     0
  9
$DIMSD2
 70
     0
  9
$DIMTOLJ
 70
     1
  9
$DIMTZIN
 70
     0
  9
$DIMALTZ
 70
     0
  9
$DIMALTTZ
 70
     0
  9
$DIMUPT
 70
     0
  9
$DIMDEC
 70
     0
  9
$DIMTDEC
 70
     4
  9
$DIMALTU
 70
     2
  9
$DIMALTTD
 70
     2
  9
$DIMTXSTY
  7
SPECBUD_TXT
  9
$DIMAUNIT
 70
     0
  9
$DIMADEC
 70
     0
  9
$DIMALTRND
 40
0.0
  9
$DIMAZIN
 70
     0
  9
$DIMDSEP
 70
    46
  9
$DIMATFIT
 70
     0
  9
$DIMFRAC
 70
     0
  9
$DIMLDRBLK
  1
Oblique
  9
$DIMLUNIT
 70
     2
  9
$DIMLWD
 70
    -2
  9
$DIMLWE
 70
    -2
  9
$DIMTMOVE
 70
     0
  9
$DIMFXL
 40
1.0
  9
$DIMFXLON
 70
     0
  9
$DIMJOGANG
 40
0.7853981633974483
  9
$DIMTFILL
 70
     0
  9
$DIMTFILLCLR
 70
     0
  9
$DIMARCSYM
 70
     0
  9
$DIMLTYPE
  6

  9
$DIMLTEX1
  6

  9
$DIMLTEX2
  6

  9
$DIMTXTDIRECTION
 70
     0
  9
$LUNITS
 70
     2
  9
$LUPREC
 70
     4
  9
$SKETCHINC
 40
0.1
  9
$FILLETRAD
 40
0.0
  9
$AUNITS
 70
     0
  9
$AUPREC
 70
     0
  9
$MENU
  1
.
  9
$ELEVATION
 40
0.0
  9
$PELEVATION
 40
0.0
  9
$THICKNESS
 40
0.0
  9
$LIMCHECK
 70
     0
  9
$CHAMFERA
 40
0.0
  9
$CHAMFERB
 40
0.0
  9
$CHAMFERC
 40
0.0
  9
$CHAMFERD
 40
0.0
  9
$SKPOLY
 70
     0
  9
$TDCREATE
 40
2459738.699606481
  9
$TDUCREATE
 40
2459738.616273148
  9
$TDUPDATE
 40
2459789.665159062
  9
$TDUUPDATE
 40
2459789.581825729
  9
$TDINDWG
 40
0.013922072
  9
$TDUSRTIMER
 40
0.013922072
  9
$USRTIMER
 70
     1
  9
$ANGBASE
 50
0.0
  9
$ANGDIR
 70
     0
  9
$PDMODE
 70
     0
  9
$PDSIZE
 40
0.0
  9
$PLINEWID
 40
0.0
  9
$SPLFRAME
 70
     0
  9
$SPLINETYPE
 70
     6
  9
$SPLINESEGS
 70
     8
  9
$HANDSEED
  5
28F
  9
$SURFTAB1
 70
     6
  9
$SURFTAB2
 70
     6
  9
$SURFTYPE
 70
     6
  9
$SURFU
 70
     6
  9
$SURFV
 70
     6
  9
$UCSBASE
  2

  9
$UCSNAME
  2

  9
$UCSORG
 10
0.0
 20
0.0
 30
0.0
  9
$UCSXDIR
 10
1.0
 20
0.0
 30
0.0
  9
$UCSYDIR
 10
0.0
 20
1.0
 30
0.0
  9
$UCSORTHOREF
  2

  9
$UCSORTHOVIEW
 70
     0
  9
$UCSORGTOP
 10
0.0
 20
0.0
 30
0.0
  9
$UCSORGBOTTOM
 10
0.0
 20
0.0
 30
0.0
  9
$UCSORGLEFT
 10
0.0
 20
0.0
 30
0.0
  9
$UCSORGRIGHT
 10
0.0
 20
0.0
 30
0.0
  9
$UCSORGFRONT
 10
0.0
 20
0.0
 30
0.0
  9
$UCSORGBACK
 10
0.0
 20
0.0
 30
0.0
  9
$PUCSBASE
  2

  9
$PUCSNAME
  2

  9
$PUCSORG
 10
0.0
 20
0.0
 30
0.0
  9
$PUCSXDIR
 10
1.0
 20
0.0
 30
0.0
  9
$PUCSYDIR
 10
0.0
 20
1.0
 30
0.0
  9
$PUCSORTHOREF
  2

  9
$PUCSORTHOVIEW
 70
     0
  9
$PUCSORGTOP
 10
0.0
 20
0.0
 30
0.0
  9
$PUCSORGBOTTOM
 10
0.0
 20
0.0
 30
0.0
  9
$PUCSORGLEFT
 10
0.0
 20
0.0
 30
0.0
  9
$PUCSORGRIGHT
 10
0.0
 20
0.0
 30
0.0
  9
$PUCSORGFRONT
 10
0.0
 20
0.0
 30
0.0
  9
$PUCSORGBACK
 10
0.0
 20
0.0
 30
0.0
  9
$USERI1
 70
     0
  9
$USERI2
 70
     0
  9
$USERI3
 70
     0
  9
$USERI4
 70
     0
  9
$USERI5
 70
     0
  9
$USERR1
 40
0.0
  9
$USERR2
 40
0.0
  9
$USERR3
 40
0.0
  9
$USERR4
 40
0.0
  9
$USERR5
 40
0.0
  9
$WORLDVIEW
 70
     1
  9
$SHADEDGE
 70
     3
  9
$SHADEDIF
 70
    70
  9
$TILEMODE
 70
     1
  9
$MAXACTVP
 70
    64
  9
$PINSBASE
 10
0.0
 20
0.0
 30
0.0
  9
$PLIMCHECK
 70
     0
  9
$PEXTMIN
 10
1.000000000000000E+20
 20
1.000000000000000E+20
 30
1.000000000000000E+20
  9
$PEXTMAX
 10
-1.000000000000000E+20
 20
-1.000000000000000E+20
 30
-1.000000000000000E+20
  9
$PLIMMIN
 10
0.0
 20
0.0
  9
$PLIMMAX
 10
12.0
 20
9.0
  9
$UNITMODE
 70
     0
  9
$VISRETAIN
 70
     1
  9
$PLINEGEN
 70
     0
  9
$PSLTSCALE
 70
     0
  9
$TREEDEPTH
 70
  3020
  9
$CMLSTYLE
  2
Standard
  9
$CMLJUST
 70
     0
  9
$CMLSCALE
 40
1.0
  9
$PROXYGRAPHICS
 70
     1
  9
$MEASUREMENT
 70
     1
  9
$CELWEIGHT
370
    -1
  9
$ENDCAPS
280
     0
  9
$JOINSTYLE
280
     0
  9
$LWDISPLAY
290
     0
  9
$INSUNITS
 70
     0
  9
$HYPERLINKBASE
  1

  9
$STYLESHEET
  1

  9
$XEDIT
290
     1
  9
$CEPSNTYPE
380
     0
  9
$PSTYLEMODE
290
     1
  9
$FINGERPRINTGUID
  2
{C090F3CD-6FD9-5143-8B31-AFF0292CB8B9}
  9
$VERSIONGUID
  2
{B7A429BE-2558-9D40-9A65-26443D60E0CA}
  9
$EXTNAMES
290
     1
  9
$PSVPSCALE
 40
0.0
  9
$OLESTARTUP
290
     0
  9
$SORTENTS
280
   127
  9
$INDEXCTL
280
     0
  9
$HIDETEXT
280
     0
  9
$XCLIPFRAME
280
     2
  9
$HALOGAP
280
     0
  9
$OBSCOLOR
 70
   257
  9
$OBSLTYPE
280
     0
  9
$INTERSECTIONDISPLAY
280
     0
  9
$INTERSECTIONCOLOR
 70
   257
  9
$DIMASSOC
280
     1
  9
$PROJECTNAME
  1

  9
$CAMERADISPLAY
290
     0
  9
$LENSLENGTH
 40
50.0
  9
$CAMERAHEIGHT
 40
0.0
  9
$STEPSPERSEC
 40
2.0
  9
$STEPSIZE
 40
6.0
  9
$3DDWFPREC
 40
2.0
  9
$PSOLWIDTH
 40
0.25
  9
$PSOLHEIGHT
 40
4.0
  9
$LOFTANG1
 40
1.570796326794896
  9
$LOFTANG2
 40
1.570796326794896
  9
$LOFTMAG1
 40
0.0
  9
$LOFTMAG2
 40
0.0
  9
$LOFTPARAM
 70
     7
  9
$LOFTNORMALS
280
     1
  9
$LATITUDE
 40
37.795
  9
$LONGITUDE
 40
-122.394
  9
$NORTHDIRECTION
 40
0.0
  9
$TIMEZONE
 70
 -8000
  9
$LIGHTGLYPHDISPLAY
280
     1
  9
$TILEMODELIGHTSYNCH
280
     1
  9
$CMATERIAL
347
114
  9
$SOLIDHIST
280
     0
  9
$SHOWHIST
280
     1
  9
$DWFFRAME
280
     2
  9
$DGNFRAME
280
     0
  9
$REALWORLDSCALE
290
     1
  9
$INTERFERECOLOR
 62
     1
  9
$CSHADOW
280
     0
  9
$SHADOWPLANELOCATION
 40
0.0
  0
ENDSEC
  0
SECTION
  2
CLASSES
  0
CLASS
  1
ACDBDICTIONARYWDFLT
  2
AcDbDictionaryWithDefault
  3
ObjectDBX Classes
 90
        0
 91
        1
280
     0
281
     0
  0
CLASS
  1
MATERIAL
  2
AcDbMaterial
  3
ObjectDBX Classes
 90
     1153
 91
        3
280
     0
281
     0
  0
CLASS
  1
VISUALSTYLE
  2
AcDbVisualStyle
  3
ObjectDBX Classes
 90
     4095
 91
       24
280
     0
281
     0
  0
CLASS
  1
TABLESTYLE
  2
AcDbTableStyle
  3
ObjectDBX Classes
 90
     4095
 91
        1
280
     0
281
     0
  0
CLASS
  1
SCALE
  2
AcDbScale
  3
ObjectDBX Classes
 90
     1153
 91
       17
280
     0
281
     0
  0
CLASS
  1
MLEADERSTYLE
  2
AcDbMLeaderStyle
  3
ACDB_MLEADERSTYLE_CLASS
 90
     4095
 91
        1
280
     0
281
     0
  0
CLASS
  1
ACDBSECTIONVIEWSTYLE
  2
AcDbSectionViewStyle
  3
ObjectDBX Classes
 90
     1025
 91
        1
280
     0
281
     0
  0
CLASS
  1
ACDBDETAILVIEWSTYLE
  2
AcDbDetailViewStyle
  3
ObjectDBX Classes
 90
     1025
 91
        1
280
     0
281
     0
  0
CLASS
  1
DICTIONARYVAR
  2
AcDbDictionaryVar
  3
ObjectDBX Classes
 90
        0
 91
        9
280
     0
281
     0
  0
ENDSEC
  0
SECTION
  2
TABLES
  0
TABLE
  2
VPORT
  5
1
330
0
100
AcDbSymbolTable
 70
     1
  0
VPORT
  5
57
330
1
100
AcDbSymbolTableRecord
100
AcDbViewportTableRecord
  2
*Active
 70
     0
 10
0.0
 20
0.0
 11
1.0
 21
1.0
 12
269.1771068914387
 22
-216.4159840322536
 13
0.0
 23
0.0
 14
1.0
 24
1.0
 15
0.0
 25
0.0
 16
0.0
 26
0.0
 36
1.0
 17
0.0
 27
0.0
 37
0.0
 40
542.8594112991413
 41
1.652380952380952
 42
50.0
 43
0.0
 44
0.0
 50
0.0
 51
0.0
 71
     0
 72
   100
 73
     1
 74
     1
 75
     0
 76
     0
 77
     0
 78
     0
281
     0
 65
     1
110
0.0
120
0.0
130
0.0
111
1.0
121
0.0
131
0.0
112
0.0
122
1.0
132
0.0
 79
     0
146
0.0
348
132
 60
     3
 61
     5
292
     1
282
     1
141
0.0
142
0.0
 63
   250
421
  3355443
1001
ACAD_NAV_VCDISPLAY
1070
     3
  0
ENDTAB
  0
TABLE
  2
LTYPE
  5
2
330
0
100
AcDbSymbolTable
 70
     1
  0
LTYPE
  5
3
330
2
100
AcDbSymbolTableRecord
100
AcDbLinetypeTableRecord
  2
BYBLOCK
 70
     0
  3

 72
    65
 73
     0
 40
0.0
  0
LTYPE
  5
4
330
2
100
AcDbSymbolTableRecord
100
AcDbLinetypeTableRecord
  2
BYLAYER
 70
     0
  3

 72
    65
 73
     0
 40
0.0
  0
LTYPE
  5
112
330
2
100
AcDbSymbolTableRecord
100
AcDbLinetypeTableRecord
  2
Continuous
 70
     0
  3
Solid line
 72
    65
 73
     0
 40
0.0
  0
ENDTAB
  0
TABLE
  2
LAYER
  5
1A
330
0
100
AcDbSymbolTable
 70
     1
  0
LAYER
  5
55
102
{ACAD_XDICTIONARY
360
24D
102
}
330
1A
100
AcDbSymbolTableRecord
100
AcDbLayerTableRecord
  2
0
 70
     0
 62
     7
  6
Continuous
370
    -3
390
19
347
124
1071
 33554687
  0
ENDTAB
  0
TABLE
  2
STYLE
  5
5
330
0
100
AcDbSymbolTable
 70
     2
  0
STYLE
  5
6
330
5
100
AcDbSymbolTableRecord
100
AcDbTextStyleTableRecord
  2
STANDARD
 70
     0
 40
0.0
 41
1.0
 50
0.0
 71
     0
 42
10.0
  3
txt
  4

  0
STYLE
  5
58
330
5
100
AcDbSymbolTableRecord
100
AcDbTextStyleTableRecord
  2
SPECBUD_TXT
 70
     0
 40
0.0
 41
1.0
 50
0.0
 71
     0
 42
10.0
  3
arial.ttf
  4

1001
ACAD
1000
Arial
1071
    60962
  0
ENDTAB
  0
TABLE
  2
VIEW
  5
7
330
0
100
AcDbSymbolTable
 70
     0
  0
ENDTAB
  0
TABLE
  2
UCS
  5
8
330
0
100
AcDbSymbolTable
 70
     0
  0
ENDTAB
  0
TABLE
  2
APPID
  5
9
330
0
100
AcDbSymbolTable
 70
     8
  0
APPID
  5
A
330
9
100
AcDbSymbolTableRecord
100
AcDbRegAppTableRecord
  2
ACAD
 70
     0
  0
APPID
  5
16B
330
9
100
AcDbSymbolTableRecord
100
AcDbRegAppTableRecord
  2
MCS_DOCUMENT_ID
 70
     0
  0
APPID
  5
16C
330
9
100
AcDbSymbolTableRecord
100
AcDbRegAppTableRecord
  2
MCS_DIM1
 70
     0
  0
APPID
  5
16D
330
9
100
AcDbSymbolTableRecord
100
AcDbRegAppTableRecord
  2
McsXdata5
 70
     0
  0
APPID
  5
16E
330
9
100
AcDbSymbolTableRecord
100
AcDbRegAppTableRecord
  2
ACAD_NAV_VCDISPLAY
 70
     0
  0
APPID
  5
233
330
9
100
AcDbSymbolTableRecord
100
AcDbRegAppTableRecord
  2
ACAD_EXEMPT_FROM_CAD_STANDARDS
 70
     0
  0
APPID
  5
23B
330
9
100
AcDbSymbolTableRecord
100
AcDbRegAppTableRecord
  2
McDocData
 70
     0
  0
APPID
  5
23D
330
9
100
AcDbSymbolTableRecord
100
AcDbRegAppTableRecord
  2
MC_VERSION_DATA
 70
     0
  0
ENDTAB
  0
TABLE
  2
DIMSTYLE
  5
B
330
0
100
AcDbSymbolTable
 70
     1
100
AcDbDimStyleTable
 71
     1
340
5D
  0
DIMSTYLE
105
5D
330
B
100
AcDbSymbolTableRecord
100
AcDbDimStyleTableRecord
  2
SPECBUD_1_20_mm
 70
     0
 41
4.0
 42
10.0
 43
1.0
 44
2.799999999999999
 46
2.799999999999999
 73
     0
 74
     0
 77
     1
140
5.0
144
10.0
147
1.5
172
     1
176
   256
177
   256
271
     0
178
   256
271
     0
289
     0
340
58
342
59
  0
ENDTAB
  0
TABLE
  2
BLOCK_RECORD
  5
C
330
0
100
AcDbSymbolTable
 70
     1
  0
BLOCK_RECORD
  5
D
330
C
100
AcDbSymbolTableRecord
100
AcDbBlockTableRecord
  2
*MODEL_SPACE
340
162
 70
     0
280
     1
281
     0
  0
BLOCK_RECORD
  5
E
330
C
100
AcDbSymbolTableRecord
100
AcDbBlockTableRecord
  2
*PAPER_SPACE
340
163
 70
     0
280
     1
281
     0
  0
BLOCK_RECORD
  5
59
330
C
100
AcDbSymbolTableRecord
100
AcDbBlockTableRecord
  2
_Oblique
340
0
 70
     0
280
     1
281
     0
  0
ENDTAB
  0
ENDSEC
  0
SECTION
  2
BLOCKS
  0
BLOCK
  5
F
330
D
100
AcDbEntity
  8
0
100
AcDbBlockBegin
  2
*MODEL_SPACE
 70
     0
 10
0.0
 20
0.0
 30
0.0
  3
*MODEL_SPACE
  1

  0
ENDBLK
  5
10
330
D
100
AcDbEntity
  8
0
100
AcDbBlockEnd
  0
BLOCK
  5
11
330
E
100
AcDbEntity
 67
     1
  8
0
100
AcDbBlockBegin
  2
*PAPER_SPACE
 70
     0
 10
0.0
 20
0.0
 30
0.0
  3
*PAPER_SPACE
  1

  0
ENDBLK
  5
12
330
E
100
AcDbEntity
 67
     1
  8
0
100
AcDbBlockEnd
  0
BLOCK
  5
5A
330
59
100
AcDbEntity
  8
0
100
AcDbBlockBegin
  2
_Oblique
 70
     0
 10
0.0
 20
0.0
 30
0.0
  3
_Oblique
  1

  0
LINE
  5
5B
330
59
100
AcDbEntity
  8
0
 62
     0
370
    -2
100
AcDbLine
 10
-0.5
 20
-0.5
 30
0.0
 11
0.5
 21
0.5
 31
0.0
  0
ENDBLK
  5
5C
330
59
100
AcDbEntity
  8
0
100
AcDbBlockEnd
  0
ENDSEC
  0
SECTION
  2
ENTITIES
  0
MTEXT
  5
5E
330
D
100
AcDbEntity
  8
0
100
AcDbMText
 10
0.0
 20
-4.58
 30
0.0
 40
5.0
 41
0.0
 46
0.0
 71
     4
 72
     5
  1
Спецификация стержней
  7
SPECBUD_TXT
 73
     1
 44
1.0
1001
ACAD
1000
MTEXTBEGIN
1070
    73
1070
     1
1070
    44
1040
1.0
1070
    74
1070
     0
1000
MTEXTEND
  0
MTEXT
  5
5F
330
D
100
AcDbEntity
  8
0
100
AcDbMText
 10
176.1
 20
-16.49
 30
0.0
 40
5.0
 41
0.0
 46
0.0
 71
     5
 72
     5
  1
Количество [шт.]
  7
SPECBUD_TXT
 73
     1
 44
1.0
1001
ACAD
1000
MTEXTBEGIN
1070
    73
1070
     1
1070
    44
1040
1.0
1070
    74
1070
     0
1000
MTEXTEND
  0
MTEXT
  5
60
330
D
100
AcDbEntity
  8
0
100
AcDbMText
 10
311.99
 20
-16.49
 30
0.0
 40
5.0
 41
0.0
 46
0.0
 71
     5
 72
     5
  1
Всего длина [м]
  7
SPECBUD_TXT
 73
     1
 44
1.0
1001
ACAD
1000
MTEXTBEGIN
1070
    73
1070
     1
1070
    44
1040
1.0
1070
    74
1070
     0
1000
MTEXTEND
  0
MTEXT
  5
61
330
D
100
AcDbEntity
  8
0
100
AcDbMText
 10
10.9
 20
-27.49
 30
0.0
 40
5.0
 41
0.0
 46
0.0
 71
     5
 72
     5
  1
№
  7
SPECBUD_TXT
 73
     1
 44
1.0
1001
ACAD
1000
MTEXTBEGIN
1070
    73
1070
     1
1070
    44
1040
1.0
1070
    74
1070
     0
1000
MTEXTEND
  0
MTEXT
  5
62
330
D
100
AcDbEntity
  8
0
100
AcDbMText
 10
40.2
 20
-27.49
 30
0.0
 40
5.0
 41
0.0
 46
0.0
 71
     5
 72
     5
  1
Диаметр
  7
SPECBUD_TXT
 73
     1
 44
1.0
1001
ACAD
1000
MTEXTBEGIN
1070
    73
1070
     1
1070
    44
1040
1.0
1070
    74
1070
     0
1000
MTEXTEND
  0
MTEXT
  5
63
330
D
100
AcDbEntity
  8
0
100
AcDbMText
 10
82.09999999999999
 20
-27.49
 30
0.0
 40
5.0
 41
0.0
 46
0.0
 71
     5
 72
     5
  1
Длина
  7
SPECBUD_TXT
 73
     1
 44
1.0
1001
ACAD
1000
MTEXTBEGIN
1070
    73
1070
     1
1070
    44
1040
1.0
1070
    74
1070
     0
1000
MTEXTEND
  0
MTEXT
  5
64
330
D
100
AcDbEntity
  8
0
100
AcDbMText
 10
129.1
 20
-27.49
 30
0.0
 40
5.0
 41
0.0
 46
0.0
 71
     5
 72
     5
  1
стержней в
  7
SPECBUD_TXT
 73
     1
 44
1.0
1001
ACAD
1000
MTEXTBEGIN
1070
    73
1070
     1
1070
    44
1040
1.0
1070
    74
1070
     0
1000
MTEXTEND
  0
MTEXT
  5
65
330
D
100
AcDbEntity
  8
0
100
AcDbMText
 10
176.1
 20
-27.49
 30
0.0
 40
5.0
 41
0.0
 46
0.0
 71
     5
 72
     5
  1
элементов
  7
SPECBUD_TXT
 73
     1
 44
1.0
1001
ACAD
1000
MTEXTBEGIN
1070
    73
1070
     1
1070
    44
1040
1.0
1070
    74
1070
     0
1000
MTEXTEND
  0
MTEXT
  5
66
330
D
100
AcDbEntity
  8
0
100
AcDbMText
 10
223.1
 20
-27.49
 30
0.0
 40
5.0
 41
0.0
 46
0.0
 71
     5
 72
     5
  1
всего
  7
SPECBUD_TXT
 73
     1
 44
1.0
1001
ACAD
1000
MTEXTBEGIN
1070
    73
1070
     1
1070
    44
1040
1.0
1070
    74
1070
     0
1000
MTEXTEND
  0
MTEXT
  5
67
330
D
100
AcDbEntity
  8
0
100
AcDbMText
 10
261.47
 20
-27.49
 30
0.0
 40
5.0
 41
0.0
 46
0.0
 71
     5
 72
     5
  1
B500A
  7
SPECBUD_TXT
 73
     1
 44
1.0
1001
ACAD
1000
MTEXTBEGIN
1070
    73
1070
     1
1070
    44
1040
1.0
1070
    74
1070
     0
1000
MTEXTEND
  0
MTEXT
  5
68
330
D
100
AcDbEntity
  8
0
100
AcDbMText
 10
326.87
 20
-27.49
 30
0.0
 40
5.0
 41
0.0
 46
0.0
 71
     5
 72
     5
  1
B500SP
  7
SPECBUD_TXT
 73
     1
 44
1.0
1001
ACAD
1000
MTEXTBEGIN
1070
    73
1070
     1
1070
    44
1040
1.0
1070
    74
1070
     0
1000
MTEXTEND
  0
MTEXT
  5
69
330
D
100
AcDbEntity
  8
0
100
AcDbMText
 10
10.9
 20
-38.5
 30
0.0
 40
5.0
 41
0.0
 46
0.0
 71
     5
 72
     5
  1

  7
SPECBUD_TXT
 73
     1
 44
1.0
1001
ACAD
1000
MTEXTBEGIN
1070
    73
1070
     1
1070
    44
1040
1.0
1070
    74
1070
     0
1000
MTEXTEND
  0
MTEXT
  5
6A
330
D
100
AcDbEntity
  8
0
100
AcDbMText
 10
40.2
 20
-38.49
 30
0.0
 40
5.0
 41
0.0
 46
0.0
 71
     5
 72
     5
  1
[мм]
  7
SPECBUD_TXT
 73
     1
 44
1.0
1001
ACAD
1000
MTEXTBEGIN
1070
    73
1070
     1
1070
    44
1040
1.0
1070
    74
1070
     0
1000
MTEXTEND
  0
MTEXT
  5
6B
330
D
100
AcDbEntity
  8
0
100
AcDbMText
 10
82.09999999999999
 20
-38.49
 30
0.0
 40
5.0
 41
0.0
 46
0.0
 71
     5
 72
     5
  1
[мм]
  7
SPECBUD_TXT
 73
     1
 44
1.0
1001
ACAD
1000
MTEXTBEGIN
1070
    73
1070
     1
1070
    44
1040
1.0
1070
    74
1070
     0
1000
MTEXTEND
  0
MTEXT
  5
6C
330
D
100
AcDbEntity
  8
0
100
AcDbMText
 10
129.1
 20
-38.49
 30
0.0
 40
5.0
 41
0.0
 46
0.0
 71
     5
 72
     5
  1
1 элементе
  7
SPECBUD_TXT
 73
     1
 44
1.0
1001
ACAD
1000
MTEXTBEGIN
1070
    73
1070
     1
1070
    44
1040
1.0
1070
    74
1070
     0
1000
MTEXTEND
  0
MTEXT
  5
6D
330
D
100
AcDbEntity
  8
0
100
AcDbMText
 10
176.1
 20
-38.5
 30
0.0
 40
5.0
 41
0.0
 46
0.0
 71
     5
 72
     5
  1

  7
SPECBUD_TXT
 73
     1
 44
1.0
1001
ACAD
1000
MTEXTBEGIN
1070
    73
1070
     1
1070
    44
1040
1.0
1070
    74
1070
     0
1000
MTEXTEND
  0
MTEXT
  5
6E
330
D
100
AcDbEntity
  8
0
100
AcDbMText
 10
223.1
 20
-38.49
 30
0.0
 40
5.0
 41
0.0
 46
0.0
 71
     5
 72
     5
  1
стержней
  7
SPECBUD_TXT
 73
     1
 44
1.0
1001
ACAD
1000
MTEXTBEGIN
1070
    73
1070
     1
1070
    44
1040
1.0
1070
    74
1070
     0
1000
MTEXTEND
  0
MTEXT
  5
6F
330
D
100
AcDbEntity
  8
0
100
AcDbMText
 10
261.47
 20
-38.49
 30
0.0
 40
5.0
 41
0.0
 46
0.0
 71
     5
 72
     5
  1
%%C8
  7
SPECBUD_TXT
 73
     1
 44
1.0
1001
ACAD
1000
MTEXTBEGIN
1070
    73
1070
     1
1070
    44
1040
1.0
1070
    74
1070
     0
1000
MTEXTEND
  0
MTEXT
  5
70
330
D
100
AcDbEntity
  8
0
100
AcDbMText
 10
293.19
 20
-38.49
 30
0.0
 40
5.0
 41
0.0
 46
0.0
 71
     5
 72
     5
  1
%%C8
  7
SPECBUD_TXT
 73
     1
 44
1.0
1001
ACAD
1000
MTEXTBEGIN
1070
    73
1070
     1
1070
    44
1040
1.0
1070
    74
1070
     0
1000
MTEXTEND
  0
MTEXT
  5
71
330
D
100
AcDbEntity
  8
0
100
AcDbMText
 10
326.87
 20
-38.49
 30
0.0
 40
5.0
 41
0.0
 46
0.0
 71
     5
 72
     5
  1
%%C10
  7
SPECBUD_TXT
 73
     1
 44
1.0
1001
ACAD
1000
MTEXTBEGIN
1070
    73
1070
     1
1070
    44
1040
1.0
1070
    74
1070
     0
1000
MTEXTEND
  0
MTEXT
  5
72
330
D
100
AcDbEntity
  8
0
100
AcDbMText
 10
360.55
 20
-38.49
 30
0.0
 40
5.0
 41
0.0
 46
0.0
 71
     5
 72
     5
  1
%%C12
  7
SPECBUD_TXT
 73
     1
 44
1.0
1001
ACAD
1000
MTEXTBEGIN
1070
    73
1070
     1
1070
    44
1040
1.0
1070
    74
1070
     0
1000
MTEXTEND
  0
MTEXT
  5
73
330
D
100
AcDbEntity
  8
0
100
AcDbMText
 10
188.69
 20
-49.49
 30
0.0
 40
5.0
 41
0.0
 46
0.0
 71
     5
 72
     5
  1
Монолитный пояс - выполнить 4 шт.
  7
SPECBUD_TXT
 73
     1
 44
1.0
1001
ACAD
1000
MTEXTBEGIN
1070
    73
1070
     1
1070
    44
1040
1.0
1070
    74
1070
     0
1000
MTEXTEND
  0
MTEXT
  5
74
330
D
100
AcDbEntity
  8
0
100
AcDbMText
 10
10.9
 20
-60.49
 30
0.0
 40
5.0
 41
0.0
 46
0.0
 71
     5
 72
     5
  1
1
  7
SPECBUD_TXT
 73
     1
 44
1.0
1001
ACAD
1000
MTEXTBEGIN
1070
    73
1070
     1
1070
    44
1040
1.0
1070
    74
1070
     0
1000
MTEXTEND
  0
MTEXT
  5
75
330
D
100
AcDbEntity
  8
0
100
AcDbMText
 10
40.2
 20
-60.49
 30
0.0
 40
5.0
 41
0.0
 46
0.0
 71
     5
 72
     5
  1
8
  7
SPECBUD_TXT
 73
     1
 44
1.0
1001
ACAD
1000
MTEXTBEGIN
1070
    73
1070
     1
1070
    44
1040
1.0
1070
    74
1070
     0
1000
MTEXTEND
  0
MTEXT
  5
76
330
D
100
AcDbEntity
  8
0
100
AcDbMText
 10
82.09999999999999
 20
-60.49
 30
0.0
 40
5.0
 41
0.0
 46
0.0
 71
     5
 72
     5
  1
1030
  7
SPECBUD_TXT
 73
     1
 44
1.0
1001
ACAD
1000
MTEXTBEGIN
1070
    73
1070
     1
1070
    44
1040
1.0
1070
    74
1070
     0
1000
MTEXTEND
  0
MTEXT
  5
77
330
D
100
AcDbEntity
  8
0
100
AcDbMText
 10
129.1
 20
-60.49
 30
0.0
 40
5.0
 41
0.0
 46
0.0
 71
     5
 72
     5
  1
53
  7
SPECBUD_TXT
 73
     1
 44
1.0
1001
ACAD
1000
MTEXTBEGIN
1070
    73
1070
     1
1070
    44
1040
1.0
1070
    74
1070
     0
1000
MTEXTEND
  0
MTEXT
  5
78
330
D
100
AcDbEntity
  8
0
100
AcDbMText
 10
176.1
 20
-60.49
 30
0.0
 40
5.0
 41
0.0
 46
0.0
 71
     5
 72
     5
  1
4
  7
SPECBUD_TXT
 73
     1
 44
1.0
1001
ACAD
1000
MTEXTBEGIN
1070
    73
1070
     1
1070
    44
1040
1.0
1070
    74
1070
     0
1000
MTEXTEND
  0
MTEXT
  5
79
330
D
100
AcDbEntity
  8
0
100
AcDbMText
 10
223.1
 20
-60.49
 30
0.0
 40
5.0
 41
0.0
 46
0.0
 71
     5
 72
     5
  1
212
  7
SPECBUD_TXT
 73
     1
 44
1.0
1001
ACAD
1000
MTEXTBEGIN
1070
    73
1070
     1
1070
    44
1040
1.0
1070
    74
1070
     0
1000
MTEXTEND
  0
MTEXT
  5
7A
330
D
100
AcDbEntity
  8
0
100
AcDbMText
 10
261.47
 20
-60.49
 30
0.0
 40
5.0
 41
0.0
 46
0.0
 71
     5
 72
     5
  1
218,36
  7
SPECBUD_TXT
 73
     1
 44
1.0
1001
ACAD
1000
MTEXTBEGIN
1070
    73
1070
     1
1070
    44
1040
1.0
1070
    74
1070
     0
1000
MTEXTEND
  0
MTEXT
  5
7B
330
D
100
AcDbEntity
  8
0
100
AcDbMText
 10
293.19
 20
-60.5
 30
0.0
 40
5.0
 41
0.0
 46
0.0
 71
     5
 72
     5
  1

  7
SPECBUD_TXT
 73
     1
 44
1.0
1001
ACAD
1000
MTEXTBEGIN
1070
    73
1070
     1
1070
    44
1040
1.0
1070
    74
1070
     0
1000
MTEXTEND
  0
MTEXT
  5
7C
330
D
100
AcDbEntity
  8
0
100
AcDbMText
 10
326.87
 20
-60.5
 30
0.0
 40
5.0
 41
0.0
 46
0.0
 71
     5
 72
     5
  1

  7
SPECBUD_TXT
 73
     1
 44
1.0
1001
ACAD
1000
MTEXTBEGIN
1070
    73
1070
     1
1070
    44
1040
1.0
1070
    74
1070
     0
1000
MTEXTEND
  0
MTEXT
  5
7D
330
D
100
AcDbEntity
  8
0
100
AcDbMText
 10
360.55
 20
-60.5
 30
0.0
 40
5.0
 41
0.0
 46
0.0
 71
     5
 72
     5
  1

  7
SPECBUD_TXT
 73
     1
 44
1.0
1001
ACAD
1000
MTEXTBEGIN
1070
    73
1070
     1
1070
    44
1040
1.0
1070
    74
1070
     0
1000
MTEXTEND
  0
MTEXT
  5
7E
330
D
100
AcDbEntity
  8
0
100
AcDbMText
 10
10.9
 20
-71.49
 30
0.0
 40
5.0
 41
0.0
 46
0.0
 71
     5
 72
     5
  1
2
  7
SPECBUD_TXT
 73
     1
 44
1.0
1001
ACAD
1000
MTEXTBEGIN
1070
    73
1070
     1
1070
    44
1040
1.0
1070
    74
1070
     0
1000
MTEXTEND
  0
MTEXT
  5
7F
330
D
100
AcDbEntity
  8
0
100
AcDbMText
 10
40.2
 20
-71.49
 30
0.0
 40
5.0
 41
0.0
 46
0.0
 71
     5
 72
     5
  1
12
  7
SPECBUD_TXT
 73
     1
 44
1.0
1001
ACAD
1000
MTEXTBEGIN
1070
    73
1070
     1
1070
    44
1040
1.0
1070
    74
1070
     0
1000
MTEXTEND
  0
MTEXT
  5
80
330
D
100
AcDbEntity
  8
0
100
AcDbMText
 10
82.09999999999999
 20
-71.49
 30
0.0
 40
5.0
 41
0.0
 46
0.0
 71
     5
 72
     5
  1
8100
  7
SPECBUD_TXT
 73
     1
 44
1.0
1001
ACAD
1000
MTEXTBEGIN
1070
    73
1070
     1
1070
    44
1040
1.0
1070
    74
1070
     0
1000
MTEXTEND
  0
MTEXT
  5
81
330
D
100
AcDbEntity
  8
0
100
AcDbMText
 10
129.1
 20
-71.49
 30
0.0
 40
5.0
 41
0.0
 46
0.0
 71
     5
 72
     5
  1
2
  7
SPECBUD_TXT
 73
     1
 44
1.0
1001
ACAD
1000
MTEXTBEGIN
1070
    73
1070
     1
1070
    44
1040
1.0
1070
    74
1070
     0
1000
MTEXTEND
  0
MTEXT
  5
82
330
D
100
AcDbEntity
  8
0
100
AcDbMText
 10
176.1
 20
-71.49
 30
0.0
 40
5.0
 41
0.0
 46
0.0
 71
     5
 72
     5
  1
4
  7
SPECBUD_TXT
 73
     1
 44
1.0
1001
ACAD
1000
MTEXTBEGIN
1070
    73
1070
     1
1070
    44
1040
1.0
1070
    74
1070
     0
1000
MTEXTEND
  0
MTEXT
  5
83
330
D
100
AcDbEntity
  8
0
100
AcDbMText
 10
223.1
 20
-71.49
 30
0.0
 40
5.0
 41
0.0
 46
0.0
 71
     5
 72
     5
  1
8
  7
SPECBUD_TXT
 73
     1
 44
1.0
1001
ACAD
1000
MTEXTBEGIN
1070
    73
1070
     1
1070
    44
1040
1.0
1070
    74
1070
     0
1000
MTEXTEND
  0
MTEXT
  5
84
330
D
100
AcDbEntity
  8
0
100
AcDbMText
 10
261.47
 20
-71.5
 30
0.0
 40
5.0
 41
0.0
 46
0.0
 71
     5
 72
     5
  1

  7
SPECBUD_TXT
 73
     1
 44
1.0
1001
ACAD
1000
MTEXTBEGIN
1070
    73
1070
     1
1070
    44
1040
1.0
1070
    74
1070
     0
1000
MTEXTEND
  0
MTEXT
  5
85
330
D
100
AcDbEntity
  8
0
100
AcDbMText
 10
293.19
 20
-71.5
 30
0.0
 40
5.0
 41
0.0
 46
0.0
 71
     5
 72
     5
  1

  7
SPECBUD_TXT
 73
     1
 44
1.0
1001
ACAD
1000
MTEXTBEGIN
1070
    73
1070
     1
1070
    44
1040
1.0
1070
    74
1070
     0
1000
MTEXTEND
  0
MTEXT
  5
86
330
D
100
AcDbEntity
  8
0
100
AcDbMText
 10
326.87
 20
-71.5
 30
0.0
 40
5.0
 41
0.0
 46
0.0
 71
     5
 72
     5
  1

  7
SPECBUD_TXT
 73
     1
 44
1.0
1001
ACAD
1000
MTEXTBEGIN
1070
    73
1070
     1
1070
    44
1040
1.0
1070
    74
1070
     0
1000
MTEXTEND
  0
MTEXT
  5
87
330
D
100
AcDbEntity
  8
0
100
AcDbMText
 10
360.55
 20
-71.49
 30
0.0
 40
5.0
 41
0.0
 46
0.0
 71
     5
 72
     5
  1
64,80
  7
SPECBUD_TXT
 73
     1
 44
1.0
1001
ACAD
1000
MTEXTBEGIN
1070
    73
1070
     1
1070
    44
1040
1.0
1070
    74
1070
     0
1000
MTEXTEND
  0
MTEXT
  5
88
330
D
100
AcDbEntity
  8
0
100
AcDbMText
 10
10.9
 20
-82.49
 30
0.0
 40
5.0
 41
0.0
 46
0.0
 71
     5
 72
     5
  1
3
  7
SPECBUD_TXT
 73
     1
 44
1.0
1001
ACAD
1000
MTEXTBEGIN
1070
    73
1070
     1
1070
    44
1040
1.0
1070
    74
1070
     0
1000
MTEXTEND
  0
MTEXT
  5
89
330
D
100
AcDbEntity
  8
0
100
AcDbMText
 10
40.2
 20
-82.49
 30
0.0
 40
5.0
 41
0.0
 46
0.0
 71
     5
 72
     5
  1
12
  7
SPECBUD_TXT
 73
     1
 44
1.0
1001
ACAD
1000
MTEXTBEGIN
1070
    73
1070
     1
1070
    44
1040
1.0
1070
    74
1070
     0
1000
MTEXTEND
  0
MTEXT
  5
8A
330
D
100
AcDbEntity
  8
0
100
AcDbMText
 10
82.09999999999999
 20
-82.49
 30
0.0
 40
5.0
 41
0.0
 46
0.0
 71
     5
 72
     5
  1
8350
  7
SPECBUD_TXT
 73
     1
 44
1.0
1001
ACAD
1000
MTEXTBEGIN
1070
    73
1070
     1
1070
    44
1040
1.0
1070
    74
1070
     0
1000
MTEXTEND
  0
MTEXT
  5
8B
330
D
100
AcDbEntity
  8
0
100
AcDbMText
 10
129.1
 20
-82.49
 30
0.0
 40
5.0
 41
0.0
 46
0.0
 71
     5
 72
     5
  1
2
  7
SPECBUD_TXT
 73
     1
 44
1.0
1001
ACAD
1000
MTEXTBEGIN
1070
    73
1070
     1
1070
    44
1040
1.0
1070
    74
1070
     0
1000
MTEXTEND
  0
MTEXT
  5
8C
330
D
100
AcDbEntity
  8
0
100
AcDbMText
 10
176.1
 20
-82.49
 30
0.0
 40
5.0
 41
0.0
 46
0.0
 71
     5
 72
     5
  1
4
  7
SPECBUD_TXT
 73
     1
 44
1.0
1001
ACAD
1000
MTEXTBEGIN
1070
    73
1070
     1
1070
    44
1040
1.0
1070
    74
1070
     0
1000
MTEXTEND
  0
MTEXT
  5
8D
330
D
100
AcDbEntity
  8
0
100
AcDbMText
 10
223.1
 20
-82.49
 30
0.0
 40
5.0
 41
0.0
 46
0.0
 71
     5
 72
     5
  1
8
  7
SPECBUD_TXT
 73
     1
 44
1.0
1001
ACAD
1000
MTEXTBEGIN
1070
    73
1070
     1
1070
    44
1040
1.0
1070
    74
1070
     0
1000
MTEXTEND
  0
MTEXT
  5
8E
330
D
100
AcDbEntity
  8
0
100
AcDbMText
 10
261.47
 20
-82.5
 30
0.0
 40
5.0
 41
0.0
 46
0.0
 71
     5
 72
     5
  1

  7
SPECBUD_TXT
 73
     1
 44
1.0
1001
ACAD
1000
MTEXTBEGIN
1070
    73
1070
     1
1070
    44
1040
1.0
1070
    74
1070
     0
1000
MTEXTEND
  0
MTEXT
  5
8F
330
D
100
AcDbEntity
  8
0
100
AcDbMText
 10
293.19
 20
-82.5
 30
0.0
 40
5.0
 41
0.0
 46
0.0
 71
     5
 72
     5
  1

  7
SPECBUD_TXT
 73
     1
 44
1.0
1001
ACAD
1000
MTEXTBEGIN
1070
    73
1070
     1
1070
    44
1040
1.0
1070
    74
1070
     0
1000
MTEXTEND
  0
MTEXT
  5
90
330
D
100
AcDbEntity
  8
0
100
AcDbMText
 10
326.87
 20
-82.5
 30
0.0
 40
5.0
 41
0.0
 46
0.0
 71
     5
 72
     5
  1

  7
SPECBUD_TXT
 73
     1
 44
1.0
1001
ACAD
1000
MTEXTBEGIN
1070
    73
1070
     1
1070
    44
1040
1.0
1070
    74
1070
     0
1000
MTEXTEND
  0
MTEXT
  5
91
330
D
100
AcDbEntity
  8
0
100
AcDbMText
 10
360.55
 20
-82.49
 30
0.0
 40
5.0
 41
0.0
 46
0.0
 71
     5
 72
     5
  1
66,80
  7
SPECBUD_TXT
 73
     1
 44
1.0
1001
ACAD
1000
MTEXTBEGIN
1070
    73
1070
     1
1070
    44
1040
1.0
1070
    74
1070
     0
1000
MTEXTEND
  0
MTEXT
  5
92
330
D
100
AcDbEntity
  8
0
100
AcDbMText
 10
10.9
 20
-93.49
 30
0.0
 40
5.0
 41
0.0
 46
0.0
 71
     5
 72
     5
  1
4
  7
SPECBUD_TXT
 73
     1
 44
1.0
1001
ACAD
1000
MTEXTBEGIN
1070
    73
1070
     1
1070
    44
1040
1.0
1070
    74
1070
     0
1000
MTEXTEND
  0
MTEXT
  5
93
330
D
100
AcDbEntity
  8
0
100
AcDbMText
 10
40.2
 20
-93.49
 30
0.0
 40
5.0
 41
0.0
 46
0.0
 71
     5
 72
     5
  1
12
  7
SPECBUD_TXT
 73
     1
 44
1.0
1001
ACAD
1000
MTEXTBEGIN
1070
    73
1070
     1
1070
    44
1040
1.0
1070
    74
1070
     0
1000
MTEXTEND
  0
MTEXT
  5
94
330
D
100
AcDbEntity
  8
0
100
AcDbMText
 10
82.09999999999999
 20
-93.49
 30
0.0
 40
5.0
 41
0.0
 46
0.0
 71
     5
 72
     5
  1
6650
  7
SPECBUD_TXT
 73
     1
 44
1.0
1001
ACAD
1000
MTEXTBEGIN
1070
    73
1070
     1
1070
    44
1040
1.0
1070
    74
1070
     0
1000
MTEXTEND
  0
MTEXT
  5
95
330
D
100
AcDbEntity
  8
0
100
AcDbMText
 10
129.1
 20
-93.49
 30
0.0
 40
5.0
 41
0.0
 46
0.0
 71
     5
 72
     5
  1
2
  7
SPECBUD_TXT
 73
     1
 44
1.0
1001
ACAD
1000
MTEXTBEGIN
1070
    73
1070
     1
1070
    44
1040
1.0
1070
    74
1070
     0
1000
MTEXTEND
  0
MTEXT
  5
96
330
D
100
AcDbEntity
  8
0
100
AcDbMText
 10
176.1
 20
-93.49
 30
0.0
 40
5.0
 41
0.0
 46
0.0
 71
     5
 72
     5
  1
4
  7
SPECBUD_TXT
 73
     1
 44
1.0
1001
ACAD
1000
MTEXTBEGIN
1070
    73
1070
     1
1070
    44
1040
1.0
1070
    74
1070
     0
1000
MTEXTEND
  0
MTEXT
  5
97
330
D
100
AcDbEntity
  8
0
100
AcDbMText
 10
223.1
 20
-93.49
 30
0.0
 40
5.0
 41
0.0
 46
0.0
 71
     5
 72
     5
  1
8
  7
SPECBUD_TXT
 73
     1
 44
1.0
1001
ACAD
1000
MTEXTBEGIN
1070
    73
1070
     1
1070
    44
1040
1.0
1070
    74
1070
     0
1000
MTEXTEND
  0
MTEXT
  5
98
330
D
100
AcDbEntity
  8
0
100
AcDbMText
 10
261.47
 20
-93.49999999999999
 30
0.0
 40
5.0
 41
0.0
 46
0.0
 71
     5
 72
     5
  1

  7
SPECBUD_TXT
 73
     1
 44
1.0
1001
ACAD
1000
MTEXTBEGIN
1070
    73
1070
     1
1070
    44
1040
1.0
1070
    74
1070
     0
1000
MTEXTEND
  0
MTEXT
  5
99
330
D
100
AcDbEntity
  8
0
100
AcDbMText
 10
293.19
 20
-93.49999999999999
 30
0.0
 40
5.0
 41
0.0
 46
0.0
 71
     5
 72
     5
  1

  7
SPECBUD_TXT
 73
     1
 44
1.0
1001
ACAD
1000
MTEXTBEGIN
1070
    73
1070
     1
1070
    44
1040
1.0
1070
    74
1070
     0
1000
MTEXTEND
  0
MTEXT
  5
9A
330
D
100
AcDbEntity
  8
0
100
AcDbMText
 10
326.87
 20
-93.49999999999999
 30
0.0
 40
5.0
 41
0.0
 46
0.0
 71
     5
 72
     5
  1

  7
SPECBUD_TXT
 73
     1
 44
1.0
1001
ACAD
1000
MTEXTBEGIN
1070
    73
1070
     1
1070
    44
1040
1.0
1070
    74
1070
     0
1000
MTEXTEND
  0
MTEXT
  5
9B
330
D
100
AcDbEntity
  8
0
100
AcDbMText
 10
360.55
 20
-93.49
 30
0.0
 40
5.0
 41
0.0
 46
0.0
 71
     5
 72
     5
  1
53,20
  7
SPECBUD_TXT
 73
     1
 44
1.0
1001
ACAD
1000
MTEXTBEGIN
1070
    73
1070
     1
1070
    44
1040
1.0
1070
    74
1070
     0
1000
MTEXTEND
  0
MTEXT
  5
9C
330
D
100
AcDbEntity
  8
0
100
AcDbMText
 10
10.9
 20
-104.49
 30
0.0
 40
5.0
 41
0.0
 46
0.0
 71
     5
 72
     5
  1
5
  7
SPECBUD_TXT
 73
     1
 44
1.0
1001
ACAD
1000
MTEXTBEGIN
1070
    73
1070
     1
1070
    44
1040
1.0
1070
    74
1070
     0
1000
MTEXTEND
  0
MTEXT
  5
9D
330
D
100
AcDbEntity
  8
0
100
AcDbMText
 10
40.2
 20
-104.49
 30
0.0
 40
5.0
 41
0.0
 46
0.0
 71
     5
 72
     5
  1
12
  7
SPECBUD_TXT
 73
     1
 44
1.0
1001
ACAD
1000
MTEXTBEGIN
1070
    73
1070
     1
1070
    44
1040
1.0
1070
    74
1070
     0
1000
MTEXTEND
  0
MTEXT
  5
9E
330
D
100
AcDbEntity
  8
0
100
AcDbMText
 10
82.09999999999999
 20
-104.49
 30
0.0
 40
5.0
 41
0.0
 46
0.0
 71
     5
 72
     5
  1
7150
  7
SPECBUD_TXT
 73
     1
 44
1.0
1001
ACAD
1000
MTEXTBEGIN
1070
    73
1070
     1
1070
    44
1040
1.0
1070
    74
1070
     0
1000
MTEXTEND
  0
MTEXT
  5
9F
330
D
100
AcDbEntity
  8
0
100
AcDbMText
 10
129.1
 20
-104.49
 30
0.0
 40
5.0
 41
0.0
 46
0.0
 71
     5
 72
     5
  1
2
  7
SPECBUD_TXT
 73
     1
 44
1.0
1001
ACAD
1000
MTEXTBEGIN
1070
    73
1070
     1
1070
    44
1040
1.0
1070
    74
1070
     0
1000
MTEXTEND
  0
MTEXT
  5
A0
330
D
100
AcDbEntity
  8
0
100
AcDbMText
 10
176.1
 20
-104.49
 30
0.0
 40
5.0
 41
0.0
 46
0.0
 71
     5
 72
     5
  1
4
  7
SPECBUD_TXT
 73
     1
 44
1.0
1001
ACAD
1000
MTEXTBEGIN
1070
    73
1070
     1
1070
    44
1040
1.0
1070
    74
1070
     0
1000
MTEXTEND
  0
MTEXT
  5
A1
330
D
100
AcDbEntity
  8
0
100
AcDbMText
 10
223.1
 20
-104.49
 30
0.0
 40
5.0
 41
0.0
 46
0.0
 71
     5
 72
     5
  1
8
  7
SPECBUD_TXT
 73
     1
 44
1.0
1001
ACAD
1000
MTEXTBEGIN
1070
    73
1070
     1
1070
    44
1040
1.0
1070
    74
1070
     0
1000
MTEXTEND
  0
MTEXT
  5
A2
330
D
100
AcDbEntity
  8
0
100
AcDbMText
 10
261.47
 20
-104.5
 30
0.0
 40
5.0
 41
0.0
 46
0.0
 71
     5
 72
     5
  1

  7
SPECBUD_TXT
 73
     1
 44
1.0
1001
ACAD
1000
MTEXTBEGIN
1070
    73
1070
     1
1070
    44
1040
1.0
1070
    74
1070
     0
1000
MTEXTEND
  0
MTEXT
  5
A3
330
D
100
AcDbEntity
  8
0
100
AcDbMText
 10
293.19
 20
-104.5
 30
0.0
 40
5.0
 41
0.0
 46
0.0
 71
     5
 72
     5
  1

  7
SPECBUD_TXT
 73
     1
 44
1.0
1001
ACAD
1000
MTEXTBEGIN
1070
    73
1070
     1
1070
    44
1040
1.0
1070
    74
1070
     0
1000
MTEXTEND
  0
MTEXT
  5
A4
330
D
100
AcDbEntity
  8
0
100
AcDbMText
 10
326.87
 20
-104.5
 30
0.0
 40
5.0
 41
0.0
 46
0.0
 71
     5
 72
     5
  1

  7
SPECBUD_TXT
 73
     1
 44
1.0
1001
ACAD
1000
MTEXTBEGIN
1070
    73
1070
     1
1070
    44
1040
1.0
1070
    74
1070
     0
1000
MTEXTEND
  0
MTEXT
  5
A5
330
D
100
AcDbEntity
  8
0
100
AcDbMText
 10
360.55
 20
-104.49
 30
0.0
 40
5.0
 41
0.0
 46
0.0
 71
     5
 72
     5
  1
57,20
  7
SPECBUD_TXT
 73
     1
 44
1.0
1001
ACAD
1000
MTEXTBEGIN
1070
    73
1070
     1
1070
    44
1040
1.0
1070
    74
1070
     0
1000
MTEXTEND
  0
MTEXT
  5
A6
330
D
100
AcDbEntity
  8
0
100
AcDbMText
 10
10.9
 20
-115.49
 30
0.0
 40
5.0
 41
0.0
 46
0.0
 71
     5
 72
     5
  1
6
  7
SPECBUD_TXT
 73
     1
 44
1.0
1001
ACAD
1000
MTEXTBEGIN
1070
    73
1070
     1
1070
    44
1040
1.0
1070
    74
1070
     0
1000
MTEXTEND
  0
MTEXT
  5
A7
330
D
100
AcDbEntity
  8
0
100
AcDbMText
 10
40.2
 20
-115.49
 30
0.0
 40
5.0
 41
0.0
 46
0.0
 71
     5
 72
     5
  1
12
  7
SPECBUD_TXT
 73
     1
 44
1.0
1001
ACAD
1000
MTEXTBEGIN
1070
    73
1070
     1
1070
    44
1040
1.0
1070
    74
1070
     0
1000
MTEXTEND
  0
MTEXT
  5
A8
330
D
100
AcDbEntity
  8
0
100
AcDbMText
 10
82.09999999999999
 20
-115.49
 30
0.0
 40
5.0
 41
0.0
 46
0.0
 71
     5
 72
     5
  1
7550
  7
SPECBUD_TXT
 73
     1
 44
1.0
1001
ACAD
1000
MTEXTBEGIN
1070
    73
1070
     1
1070
    44
1040
1.0
1070
    74
1070
     0
1000
MTEXTEND
  0
MTEXT
  5
A9
330
D
100
AcDbEntity
  8
0
100
AcDbMText
 10
129.1
 20
-115.49
 30
0.0
 40
5.0
 41
0.0
 46
0.0
 71
     5
 72
     5
  1
2
  7
SPECBUD_TXT
 73
     1
 44
1.0
1001
ACAD
1000
MTEXTBEGIN
1070
    73
1070
     1
1070
    44
1040
1.0
1070
    74
1070
     0
1000
MTEXTEND
  0
MTEXT
  5
AA
330
D
100
AcDbEntity
  8
0
100
AcDbMText
 10
176.1
 20
-115.49
 30
0.0
 40
5.0
 41
0.0
 46
0.0
 71
     5
 72
     5
  1
4
  7
SPECBUD_TXT
 73
     1
 44
1.0
1001
ACAD
1000
MTEXTBEGIN
1070
    73
1070
     1
1070
    44
1040
1.0
1070
    74
1070
     0
1000
MTEXTEND
  0
MTEXT
  5
AB
330
D
100
AcDbEntity
  8
0
100
AcDbMText
 10
223.1
 20
-115.49
 30
0.0
 40
5.0
 41
0.0
 46
0.0
 71
     5
 72
     5
  1
8
  7
SPECBUD_TXT
 73
     1
 44
1.0
1001
ACAD
1000
MTEXTBEGIN
1070
    73
1070
     1
1070
    44
1040
1.0
1070
    74
1070
     0
1000
MTEXTEND
  0
MTEXT
  5
AC
330
D
100
AcDbEntity
  8
0
100
AcDbMText
 10
261.47
 20
-115.5
 30
0.0
 40
5.0
 41
0.0
 46
0.0
 71
     5
 72
     5
  1

  7
SPECBUD_TXT
 73
     1
 44
1.0
1001
ACAD
1000
MTEXTBEGIN
1070
    73
1070
     1
1070
    44
1040
1.0
1070
    74
1070
     0
1000
MTEXTEND
  0
MTEXT
  5
AD
330
D
100
AcDbEntity
  8
0
100
AcDbMText
 10
293.19
 20
-115.5
 30
0.0
 40
5.0
 41
0.0
 46
0.0
 71
     5
 72
     5
  1

  7
SPECBUD_TXT
 73
     1
 44
1.0
1001
ACAD
1000
MTEXTBEGIN
1070
    73
1070
     1
1070
    44
1040
1.0
1070
    74
1070
     0
1000
MTEXTEND
  0
MTEXT
  5
AE
330
D
100
AcDbEntity
  8
0
100
AcDbMText
 10
326.87
 20
-115.5
 30
0.0
 40
5.0
 41
0.0
 46
0.0
 71
     5
 72
     5
  1

  7
SPECBUD_TXT
 73
     1
 44
1.0
1001
ACAD
1000
MTEXTBEGIN
1070
    73
1070
     1
1070
    44
1040
1.0
1070
    74
1070
     0
1000
MTEXTEND
  0
MTEXT
  5
AF
330
D
100
AcDbEntity
  8
0
100
AcDbMText
 10
360.55
 20
-115.49
 30
0.0
 40
5.0
 41
0.0
 46
0.0
 71
     5
 72
     5
  1
60,40
  7
SPECBUD_TXT
 73
     1
 44
1.0
1001
ACAD
1000
MTEXTBEGIN
1070
    73
1070
     1
1070
    44
1040
1.0
1070
    74
1070
     0
1000
MTEXTEND
  0
MTEXT
  5
B0
330
D
100
AcDbEntity
  8
0
100
AcDbMText
 10
10.9
 20
-126.49
 30
0.0
 40
5.0
 41
0.0
 46
0.0
 71
     5
 72
     5
  1
7
  7
SPECBUD_TXT
 73
     1
 44
1.0
1001
ACAD
1000
MTEXTBEGIN
1070
    73
1070
     1
1070
    44
1040
1.0
1070
    74
1070
     0
1000
MTEXTEND
  0
MTEXT
  5
B1
330
D
100
AcDbEntity
  8
0
100
AcDbMText
 10
40.2
 20
-126.49
 30
0.0
 40
5.0
 41
0.0
 46
0.0
 71
     5
 72
     5
  1
12
  7
SPECBUD_TXT
 73
     1
 44
1.0
1001
ACAD
1000
MTEXTBEGIN
1070
    73
1070
     1
1070
    44
1040
1.0
1070
    74
1070
     0
1000
MTEXTEND
  0
MTEXT
  5
B2
330
D
100
AcDbEntity
  8
0
100
AcDbMText
 10
82.09999999999999
 20
-126.49
 30
0.0
 40
5.0
 41
0.0
 46
0.0
 71
     5
 72
     5
  1
6450
  7
SPECBUD_TXT
 73
     1
 44
1.0
1001
ACAD
1000
MTEXTBEGIN
1070
    73
1070
     1
1070
    44
1040
1.0
1070
    74
1070
     0
1000
MTEXTEND
  0
MTEXT
  5
B3
330
D
100
AcDbEntity
  8
0
100
AcDbMText
 10
129.1
 20
-126.49
 30
0.0
 40
5.0
 41
0.0
 46
0.0
 71
     5
 72
     5
  1
1
  7
SPECBUD_TXT
 73
     1
 44
1.0
1001
ACAD
1000
MTEXTBEGIN
1070
    73
1070
     1
1070
    44
1040
1.0
1070
    74
1070
     0
1000
MTEXTEND
  0
MTEXT
  5
B4
330
D
100
AcDbEntity
  8
0
100
AcDbMText
 10
176.1
 20
-126.49
 30
0.0
 40
5.0
 41
0.0
 46
0.0
 71
     5
 72
     5
  1
4
  7
SPECBUD_TXT
 73
     1
 44
1.0
1001
ACAD
1000
MTEXTBEGIN
1070
    73
1070
     1
1070
    44
1040
1.0
1070
    74
1070
     0
1000
MTEXTEND
  0
MTEXT
  5
B5
330
D
100
AcDbEntity
  8
0
100
AcDbMText
 10
223.1
 20
-126.49
 30
0.0
 40
5.0
 41
0.0
 46
0.0
 71
     5
 72
     5
  1
4
  7
SPECBUD_TXT
 73
     1
 44
1.0
1001
ACAD
1000
MTEXTBEGIN
1070
    73
1070
     1
1070
    44
1040
1.0
1070
    74
1070
     0
1000
MTEXTEND
  0
MTEXT
  5
B6
330
D
100
AcDbEntity
  8
0
100
AcDbMText
 10
261.47
 20
-126.5
 30
0.0
 40
5.0
 41
0.0
 46
0.0
 71
     5
 72
     5
  1

  7
SPECBUD_TXT
 73
     1
 44
1.0
1001
ACAD
1000
MTEXTBEGIN
1070
    73
1070
     1
1070
    44
1040
1.0
1070
    74
1070
     0
1000
MTEXTEND
  0
MTEXT
  5
B7
330
D
100
AcDbEntity
  8
0
100
AcDbMText
 10
293.19
 20
-126.5
 30
0.0
 40
5.0
 41
0.0
 46
0.0
 71
     5
 72
     5
  1

  7
SPECBUD_TXT
 73
     1
 44
1.0
1001
ACAD
1000
MTEXTBEGIN
1070
    73
1070
     1
1070
    44
1040
1.0
1070
    74
1070
     0
1000
MTEXTEND
  0
MTEXT
  5
B8
330
D
100
AcDbEntity
  8
0
100
AcDbMText
 10
326.87
 20
-126.5
 30
0.0
 40
5.0
 41
0.0
 46
0.0
 71
     5
 72
     5
  1

  7
SPECBUD_TXT
 73
     1
 44
1.0
1001
ACAD
1000
MTEXTBEGIN
1070
    73
1070
     1
1070
    44
1040
1.0
1070
    74
1070
     0
1000
MTEXTEND
  0
MTEXT
  5
B9
330
D
100
AcDbEntity
  8
0
100
AcDbMText
 10
360.55
 20
-126.49
 30
0.0
 40
5.0
 41
0.0
 46
0.0
 71
     5
 72
     5
  1
25,80
  7
SPECBUD_TXT
 73
     1
 44
1.0
1001
ACAD
1000
MTEXTBEGIN
1070
    73
1070
     1
1070
    44
1040
1.0
1070
    74
1070
     0
1000
MTEXTEND
  0
MTEXT
  5
BA
330
D
100
AcDbEntity
  8
0
100
AcDbMText
 10
10.9
 20
-137.49
 30
0.0
 40
5.0
 41
0.0
 46
0.0
 71
     5
 72
     5
  1
8
  7
SPECBUD_TXT
 73
     1
 44
1.0
1001
ACAD
1000
MTEXTBEGIN
1070
    73
1070
     1
1070
    44
1040
1.0
1070
    74
1070
     0
1000
MTEXTEND
  0
MTEXT
  5
BB
330
D
100
AcDbEntity
  8
0
100
AcDbMText
 10
40.2
 20
-137.49
 30
0.0
 40
5.0
 41
0.0
 46
0.0
 71
     5
 72
     5
  1
12
  7
SPECBUD_TXT
 73
     1
 44
1.0
1001
ACAD
1000
MTEXTBEGIN
1070
    73
1070
     1
1070
    44
1040
1.0
1070
    74
1070
     0
1000
MTEXTEND
  0
MTEXT
  5
BC
330
D
100
AcDbEntity
  8
0
100
AcDbMText
 10
82.09999999999999
 20
-137.49
 30
0.0
 40
5.0
 41
0.0
 46
0.0
 71
     5
 72
     5
  1
2450
  7
SPECBUD_TXT
 73
     1
 44
1.0
1001
ACAD
1000
MTEXTBEGIN
1070
    73
1070
     1
1070
    44
1040
1.0
1070
    74
1070
     0
1000
MTEXTEND
  0
MTEXT
  5
BD
330
D
100
AcDbEntity
  8
0
100
AcDbMText
 10
129.1
 20
-137.49
 30
0.0
 40
5.0
 41
0.0
 46
0.0
 71
     5
 72
     5
  1
2
  7
SPECBUD_TXT
 73
     1
 44
1.0
1001
ACAD
1000
MTEXTBEGIN
1070
    73
1070
     1
1070
    44
1040
1.0
1070
    74
1070
     0
1000
MTEXTEND
  0
MTEXT
  5
BE
330
D
100
AcDbEntity
  8
0
100
AcDbMText
 10
176.1
 20
-137.49
 30
0.0
 40
5.0
 41
0.0
 46
0.0
 71
     5
 72
     5
  1
4
  7
SPECBUD_TXT
 73
     1
 44
1.0
1001
ACAD
1000
MTEXTBEGIN
1070
    73
1070
     1
1070
    44
1040
1.0
1070
    74
1070
     0
1000
MTEXTEND
  0
MTEXT
  5
BF
330
D
100
AcDbEntity
  8
0
100
AcDbMText
 10
223.1
 20
-137.49
 30
0.0
 40
5.0
 41
0.0
 46
0.0
 71
     5
 72
     5
  1
8
  7
SPECBUD_TXT
 73
     1
 44
1.0
1001
ACAD
1000
MTEXTBEGIN
1070
    73
1070
     1
1070
    44
1040
1.0
1070
    74
1070
     0
1000
MTEXTEND
  0
MTEXT
  5
C0
330
D
100
AcDbEntity
  8
0
100
AcDbMText
 10
261.47
 20
-137.5
 30
0.0
 40
5.0
 41
0.0
 46
0.0
 71
     5
 72
     5
  1

  7
SPECBUD_TXT
 73
     1
 44
1.0
1001
ACAD
1000
MTEXTBEGIN
1070
    73
1070
     1
1070
    44
1040
1.0
1070
    74
1070
     0
1000
MTEXTEND
  0
MTEXT
  5
C1
330
D
100
AcDbEntity
  8
0
100
AcDbMText
 10
293.19
 20
-137.5
 30
0.0
 40
5.0
 41
0.0
 46
0.0
 71
     5
 72
     5
  1

  7
SPECBUD_TXT
 73
     1
 44
1.0
1001
ACAD
1000
MTEXTBEGIN
1070
    73
1070
     1
1070
    44
1040
1.0
1070
    74
1070
     0
1000
MTEXTEND
  0
MTEXT
  5
C2
330
D
100
AcDbEntity
  8
0
100
AcDbMText
 10
326.87
 20
-137.5
 30
0.0
 40
5.0
 41
0.0
 46
0.0
 71
     5
 72
     5
  1

  7
SPECBUD_TXT
 73
     1
 44
1.0
1001
ACAD
1000
MTEXTBEGIN
1070
    73
1070
     1
1070
    44
1040
1.0
1070
    74
1070
     0
1000
MTEXTEND
  0
MTEXT
  5
C3
330
D
100
AcDbEntity
  8
0
100
AcDbMText
 10
360.55
 20
-137.49
 30
0.0
 40
5.0
 41
0.0
 46
0.0
 71
     5
 72
     5
  1
19,60
  7
SPECBUD_TXT
 73
     1
 44
1.0
1001
ACAD
1000
MTEXTBEGIN
1070
    73
1070
     1
1070
    44
1040
1.0
1070
    74
1070
     0
1000
MTEXTEND
  0
MTEXT
  5
C4
330
D
100
AcDbEntity
  8
0
100
AcDbMText
 10
10.9
 20
-148.49
 30
0.0
 40
5.0
 41
0.0
 46
0.0
 71
     5
 72
     5
  1
9
  7
SPECBUD_TXT
 73
     1
 44
1.0
1001
ACAD
1000
MTEXTBEGIN
1070
    73
1070
     1
1070
    44
1040
1.0
1070
    74
1070
     0
1000
MTEXTEND
  0
MTEXT
  5
C5
330
D
100
AcDbEntity
  8
0
100
AcDbMText
 10
40.2
 20
-148.49
 30
0.0
 40
5.0
 41
0.0
 46
0.0
 71
     5
 72
     5
  1
12
  7
SPECBUD_TXT
 73
     1
 44
1.0
1001
ACAD
1000
MTEXTBEGIN
1070
    73
1070
     1
1070
    44
1040
1.0
1070
    74
1070
     0
1000
MTEXTEND
  0
MTEXT
  5
C6
330
D
100
AcDbEntity
  8
0
100
AcDbMText
 10
82.09999999999999
 20
-148.49
 30
0.0
 40
5.0
 41
0.0
 46
0.0
 71
     5
 72
     5
  1
9950
  7
SPECBUD_TXT
 73
     1
 44
1.0
1001
ACAD
1000
MTEXTBEGIN
1070
    73
1070
     1
1070
    44
1040
1.0
1070
    74
1070
     0
1000
MTEXTEND
  0
MTEXT
  5
C7
330
D
100
AcDbEntity
  8
0
100
AcDbMText
 10
129.1
 20
-148.49
 30
0.0
 40
5.0
 41
0.0
 46
0.0
 71
     5
 72
     5
  1
1
  7
SPECBUD_TXT
 73
     1
 44
1.0
1001
ACAD
1000
MTEXTBEGIN
1070
    73
1070
     1
1070
    44
1040
1.0
1070
    74
1070
     0
1000
MTEXTEND
  0
MTEXT
  5
C8
330
D
100
AcDbEntity
  8
0
100
AcDbMText
 10
176.1
 20
-148.49
 30
0.0
 40
5.0
 41
0.0
 46
0.0
 71
     5
 72
     5
  1
4
  7
SPECBUD_TXT
 73
     1
 44
1.0
1001
ACAD
1000
MTEXTBEGIN
1070
    73
1070
     1
1070
    44
1040
1.0
1070
    74
1070
     0
1000
MTEXTEND
  0
MTEXT
  5
C9
330
D
100
AcDbEntity
  8
0
100
AcDbMText
 10
223.1
 20
-148.49
 30
0.0
 40
5.0
 41
0.0
 46
0.0
 71
     5
 72
     5
  1
4
  7
SPECBUD_TXT
 73
     1
 44
1.0
1001
ACAD
1000
MTEXTBEGIN
1070
    73
1070
     1
1070
    44
1040
1.0
1070
    74
1070
     0
1000
MTEXTEND
  0
MTEXT
  5
CA
330
D
100
AcDbEntity
  8
0
100
AcDbMText
 10
261.47
 20
-148.5
 30
0.0
 40
5.0
 41
0.0
 46
0.0
 71
     5
 72
     5
  1

  7
SPECBUD_TXT
 73
     1
 44
1.0
1001
ACAD
1000
MTEXTBEGIN
1070
    73
1070
     1
1070
    44
1040
1.0
1070
    74
1070
     0
1000
MTEXTEND
  0
MTEXT
  5
CB
330
D
100
AcDbEntity
  8
0
100
AcDbMText
 10
293.19
 20
-148.5
 30
0.0
 40
5.0
 41
0.0
 46
0.0
 71
     5
 72
     5
  1

  7
SPECBUD_TXT
 73
     1
 44
1.0
1001
ACAD
1000
MTEXTBEGIN
1070
    73
1070
     1
1070
    44
1040
1.0
1070
    74
1070
     0
1000
MTEXTEND
  0
MTEXT
  5
CC
330
D
100
AcDbEntity
  8
0
100
AcDbMText
 10
326.87
 20
-148.5
 30
0.0
 40
5.0
 41
0.0
 46
0.0
 71
     5
 72
     5
  1

  7
SPECBUD_TXT
 73
     1
 44
1.0
1001
ACAD
1000
MTEXTBEGIN
1070
    73
1070
     1
1070
    44
1040
1.0
1070
    74
1070
     0
1000
MTEXTEND
  0
MTEXT
  5
CD
330
D
100
AcDbEntity
  8
0
100
AcDbMText
 10
360.55
 20
-148.49
 30
0.0
 40
5.0
 41
0.0
 46
0.0
 71
     5
 72
     5
  1
39,80
  7
SPECBUD_TXT
 73
     1
 44
1.0
1001
ACAD
1000
MTEXTBEGIN
1070
    73
1070
     1
1070
    44
1040
1.0
1070
    74
1070
     0
1000
MTEXTEND
  0
MTEXT
  5
CE
330
D
100
AcDbEntity
  8
0
100
AcDbMText
 10
188.69
 20
-159.49
 30
0.0
 40
5.0
 41
0.0
 46
0.0
 71
     5
 72
     5
  1
Дополнительное армирование - выполнить 4 шт.
  7
SPECBUD_TXT
 73
     1
 44
1.0
1001
ACAD
1000
MTEXTBEGIN
1070
    73
1070
     1
1070
    44
1040
1.0
1070
    74
1070
     0
1000
MTEXTEND
  0
MTEXT
  5
CF
330
D
100
AcDbEntity
  8
0
100
AcDbMText
 10
10.9
 20
-170.49
 30
0.0
 40
5.0
 41
0.0
 46
0.0
 71
     5
 72
     5
  1
10
  7
SPECBUD_TXT
 73
     1
 44
1.0
1001
ACAD
1000
MTEXTBEGIN
1070
    73
1070
     1
1070
    44
1040
1.0
1070
    74
1070
     0
1000
MTEXTEND
  0
MTEXT
  5
D0
330
D
100
AcDbEntity
  8
0
100
AcDbMText
 10
40.2
 20
-170.49
 30
0.0
 40
5.0
 41
0.0
 46
0.0
 71
     5
 72
     5
  1
8
  7
SPECBUD_TXT
 73
     1
 44
1.0
1001
ACAD
1000
MTEXTBEGIN
1070
    73
1070
     1
1070
    44
1040
1.0
1070
    74
1070
     0
1000
MTEXTEND
  0
MTEXT
  5
D1
330
D
100
AcDbEntity
  8
0
100
AcDbMText
 10
82.09999999999999
 20
-170.49
 30
0.0
 40
5.0
 41
0.0
 46
0.0
 71
     5
 72
     5
  1
2435
  7
SPECBUD_TXT
 73
     1
 44
1.0
1001
ACAD
1000
MTEXTBEGIN
1070
    73
1070
     1
1070
    44
1040
1.0
1070
    74
1070
     0
1000
MTEXTEND
  0
MTEXT
  5
D2
330
D
100
AcDbEntity
  8
0
100
AcDbMText
 10
129.1
 20
-170.49
 30
0.0
 40
5.0
 41
0.0
 46
0.0
 71
     5
 72
     5
  1
32
  7
SPECBUD_TXT
 73
     1
 44
1.0
1001
ACAD
1000
MTEXTBEGIN
1070
    73
1070
     1
1070
    44
1040
1.0
1070
    74
1070
     0
1000
MTEXTEND
  0
MTEXT
  5
D3
330
D
100
AcDbEntity
  8
0
100
AcDbMText
 10
176.1
 20
-170.49
 30
0.0
 40
5.0
 41
0.0
 46
0.0
 71
     5
 72
     5
  1
4
  7
SPECBUD_TXT
 73
     1
 44
1.0
1001
ACAD
1000
MTEXTBEGIN
1070
    73
1070
     1
1070
    44
1040
1.0
1070
    74
1070
     0
1000
MTEXTEND
  0
MTEXT
  5
D4
330
D
100
AcDbEntity
  8
0
100
AcDbMText
 10
223.1
 20
-170.49
 30
0.0
 40
5.0
 41
0.0
 46
0.0
 71
     5
 72
     5
  1
128
  7
SPECBUD_TXT
 73
     1
 44
1.0
1001
ACAD
1000
MTEXTBEGIN
1070
    73
1070
     1
1070
    44
1040
1.0
1070
    74
1070
     0
1000
MTEXTEND
  0
MTEXT
  5
D5
330
D
100
AcDbEntity
  8
0
100
AcDbMText
 10
261.47
 20
-170.5
 30
0.0
 40
5.0
 41
0.0
 46
0.0
 71
     5
 72
     5
  1

  7
SPECBUD_TXT
 73
     1
 44
1.0
1001
ACAD
1000
MTEXTBEGIN
1070
    73
1070
     1
1070
    44
1040
1.0
1070
    74
1070
     0
1000
MTEXTEND
  0
MTEXT
  5
D6
330
D
100
AcDbEntity
  8
0
100
AcDbMText
 10
293.19
 20
-170.49
 30
0.0
 40
5.0
 41
0.0
 46
0.0
 71
     5
 72
     5
  1
311,68
  7
SPECBUD_TXT
 73
     1
 44
1.0
1001
ACAD
1000
MTEXTBEGIN
1070
    73
1070
     1
1070
    44
1040
1.0
1070
    74
1070
     0
1000
MTEXTEND
  0
MTEXT
  5
D7
330
D
100
AcDbEntity
  8
0
100
AcDbMText
 10
326.87
 20
-170.5
 30
0.0
 40
5.0
 41
0.0
 46
0.0
 71
     5
 72
     5
  1

  7
SPECBUD_TXT
 73
     1
 44
1.0
1001
ACAD
1000
MTEXTBEGIN
1070
    73
1070
     1
1070
    44
1040
1.0
1070
    74
1070
     0
1000
MTEXTEND
  0
MTEXT
  5
D8
330
D
100
AcDbEntity
  8
0
100
AcDbMText
 10
360.55
 20
-170.5
 30
0.0
 40
5.0
 41
0.0
 46
0.0
 71
     5
 72
     5
  1

  7
SPECBUD_TXT
 73
     1
 44
1.0
1001
ACAD
1000
MTEXTBEGIN
1070
    73
1070
     1
1070
    44
1040
1.0
1070
    74
1070
     0
1000
MTEXTEND
  0
MTEXT
  5
D9
330
D
100
AcDbEntity
  8
0
100
AcDbMText
 10
10.9
 20
-181.49
 30
0.0
 40
5.0
 41
0.0
 46
0.0
 71
     5
 72
     5
  1
11
  7
SPECBUD_TXT
 73
     1
 44
1.0
1001
ACAD
1000
MTEXTBEGIN
1070
    73
1070
     1
1070
    44
1040
1.0
1070
    74
1070
     0
1000
MTEXTEND
  0
MTEXT
  5
DA
330
D
100
AcDbEntity
  8
0
100
AcDbMText
 10
40.2
 20
-181.49
 30
0.0
 40
5.0
 41
0.0
 46
0.0
 71
     5
 72
     5
  1
10
  7
SPECBUD_TXT
 73
     1
 44
1.0
1001
ACAD
1000
MTEXTBEGIN
1070
    73
1070
     1
1070
    44
1040
1.0
1070
    74
1070
     0
1000
MTEXTEND
  0
MTEXT
  5
DB
330
D
100
AcDbEntity
  8
0
100
AcDbMText
 10
82.09999999999999
 20
-181.49
 30
0.0
 40
5.0
 41
0.0
 46
0.0
 71
     5
 72
     5
  1
3050
  7
SPECBUD_TXT
 73
     1
 44
1.0
1001
ACAD
1000
MTEXTBEGIN
1070
    73
1070
     1
1070
    44
1040
1.0
1070
    74
1070
     0
1000
MTEXTEND
  0
MTEXT
  5
DC
330
D
100
AcDbEntity
  8
0
100
AcDbMText
 10
129.1
 20
-181.49
 30
0.0
 40
5.0
 41
0.0
 46
0.0
 71
     5
 72
     5
  1
9
  7
SPECBUD_TXT
 73
     1
 44
1.0
1001
ACAD
1000
MTEXTBEGIN
1070
    73
1070
     1
1070
    44
1040
1.0
1070
    74
1070
     0
1000
MTEXTEND
  0
MTEXT
  5
DD
330
D
100
AcDbEntity
  8
0
100
AcDbMText
 10
176.1
 20
-181.49
 30
0.0
 40
5.0
 41
0.0
 46
0.0
 71
     5
 72
     5
  1
4
  7
SPECBUD_TXT
 73
     1
 44
1.0
1001
ACAD
1000
MTEXTBEGIN
1070
    73
1070
     1
1070
    44
1040
1.0
1070
    74
1070
     0
1000
MTEXTEND
  0
MTEXT
  5
DE
330
D
100
AcDbEntity
  8
0
100
AcDbMText
 10
223.1
 20
-181.49
 30
0.0
 40
5.0
 41
0.0
 46
0.0
 71
     5
 72
     5
  1
36
  7
SPECBUD_TXT
 73
     1
 44
1.0
1001
ACAD
1000
MTEXTBEGIN
1070
    73
1070
     1
1070
    44
1040
1.0
1070
    74
1070
     0
1000
MTEXTEND
  0
MTEXT
  5
DF
330
D
100
AcDbEntity
  8
0
100
AcDbMText
 10
261.47
 20
-181.5
 30
0.0
 40
5.0
 41
0.0
 46
0.0
 71
     5
 72
     5
  1

  7
SPECBUD_TXT
 73
     1
 44
1.0
1001
ACAD
1000
MTEXTBEGIN
1070
    73
1070
     1
1070
    44
1040
1.0
1070
    74
1070
     0
1000
MTEXTEND
  0
MTEXT
  5
E0
330
D
100
AcDbEntity
  8
0
100
AcDbMText
 10
293.19
 20
-181.5
 30
0.0
 40
5.0
 41
0.0
 46
0.0
 71
     5
 72
     5
  1

  7
SPECBUD_TXT
 73
     1
 44
1.0
1001
ACAD
1000
MTEXTBEGIN
1070
    73
1070
     1
1070
    44
1040
1.0
1070
    74
1070
     0
1000
MTEXTEND
  0
MTEXT
  5
E1
330
D
100
AcDbEntity
  8
0
100
AcDbMText
 10
326.87
 20
-181.49
 30
0.0
 40
5.0
 41
0.0
 46
0.0
 71
     5
 72
     5
  1
109,80
  7
SPECBUD_TXT
 73
     1
 44
1.0
1001
ACAD
1000
MTEXTBEGIN
1070
    73
1070
     1
1070
    44
1040
1.0
1070
    74
1070
     0
1000
MTEXTEND
  0
MTEXT
  5
E2
330
D
100
AcDbEntity
  8
0
100
AcDbMText
 10
360.55
 20
-181.5
 30
0.0
 40
5.0
 41
0.0
 46
0.0
 71
     5
 72
     5
  1

  7
SPECBUD_TXT
 73
     1
 44
1.0
1001
ACAD
1000
MTEXTBEGIN
1070
    73
1070
     1
1070
    44
1040
1.0
1070
    74
1070
     0
1000
MTEXTEND
  0
MTEXT
  5
E3
330
D
100
AcDbEntity
  8
0
100
AcDbMText
 10
10.9
 20
-192.49
 30
0.0
 40
5.0
 41
0.0
 46
0.0
 71
     5
 72
     5
  1
12
  7
SPECBUD_TXT
 73
     1
 44
1.0
1001
ACAD
1000
MTEXTBEGIN
1070
    73
1070
     1
1070
    44
1040
1.0
1070
    74
1070
     0
1000
MTEXTEND
  0
MTEXT
  5
E4
330
D
100
AcDbEntity
  8
0
100
AcDbMText
 10
40.2
 20
-192.49
 30
0.0
 40
5.0
 41
0.0
 46
0.0
 71
     5
 72
     5
  1
8
  7
SPECBUD_TXT
 73
     1
 44
1.0
1001
ACAD
1000
MTEXTBEGIN
1070
    73
1070
     1
1070
    44
1040
1.0
1070
    74
1070
     0
1000
MTEXTEND
  0
MTEXT
  5
E5
330
D
100
AcDbEntity
  8
0
100
AcDbMText
 10
82.09999999999999
 20
-192.49
 30
0.0
 40
5.0
 41
0.0
 46
0.0
 71
     5
 72
     5
  1
3180
  7
SPECBUD_TXT
 73
     1
 44
1.0
1001
ACAD
1000
MTEXTBEGIN
1070
    73
1070
     1
1070
    44
1040
1.0
1070
    74
1070
     0
1000
MTEXTEND
  0
MTEXT
  5
E6
330
D
100
AcDbEntity
  8
0
100
AcDbMText
 10
129.1
 20
-192.49
 30
0.0
 40
5.0
 41
0.0
 46
0.0
 71
     5
 72
     5
  1
7
  7
SPECBUD_TXT
 73
     1
 44
1.0
1001
ACAD
1000
MTEXTBEGIN
1070
    73
1070
     1
1070
    44
1040
1.0
1070
    74
1070
     0
1000
MTEXTEND
  0
MTEXT
  5
E7
330
D
100
AcDbEntity
  8
0
100
AcDbMText
 10
176.1
 20
-192.49
 30
0.0
 40
5.0
 41
0.0
 46
0.0
 71
     5
 72
     5
  1
4
  7
SPECBUD_TXT
 73
     1
 44
1.0
1001
ACAD
1000
MTEXTBEGIN
1070
    73
1070
     1
1070
    44
1040
1.0
1070
    74
1070
     0
1000
MTEXTEND
  0
MTEXT
  5
E8
330
D
100
AcDbEntity
  8
0
100
AcDbMText
 10
223.1
 20
-192.49
 30
0.0
 40
5.0
 41
0.0
 46
0.0
 71
     5
 72
     5
  1
28
  7
SPECBUD_TXT
 73
     1
 44
1.0
1001
ACAD
1000
MTEXTBEGIN
1070
    73
1070
     1
1070
    44
1040
1.0
1070
    74
1070
     0
1000
MTEXTEND
  0
MTEXT
  5
E9
330
D
100
AcDbEntity
  8
0
100
AcDbMText
 10
261.47
 20
-192.49
 30
0.0
 40
5.0
 41
0.0
 46
0.0
 71
     5
 72
     5
  1
89,04
  7
SPECBUD_TXT
 73
     1
 44
1.0
1001
ACAD
1000
MTEXTBEGIN
1070
    73
1070
     1
1070
    44
1040
1.0
1070
    74
1070
     0
1000
MTEXTEND
  0
MTEXT
  5
EA
330
D
100
AcDbEntity
  8
0
100
AcDbMText
 10
293.19
 20
-192.5
 30
0.0
 40
5.0
 41
0.0
 46
0.0
 71
     5
 72
     5
  1

  7
SPECBUD_TXT
 73
     1
 44
1.0
1001
ACAD
1000
MTEXTBEGIN
1070
    73
1070
     1
1070
    44
1040
1.0
1070
    74
1070
     0
1000
MTEXTEND
  0
MTEXT
  5
EB
330
D
100
AcDbEntity
  8
0
100
AcDbMText
 10
326.87
 20
-192.5
 30
0.0
 40
5.0
 41
0.0
 46
0.0
 71
     5
 72
     5
  1

  7
SPECBUD_TXT
 73
     1
 44
1.0
1001
ACAD
1000
MTEXTBEGIN
1070
    73
1070
     1
1070
    44
1040
1.0
1070
    74
1070
     0
1000
MTEXTEND
  0
MTEXT
  5
EC
330
D
100
AcDbEntity
  8
0
100
AcDbMText
 10
360.55
 20
-192.5
 30
0.0
 40
5.0
 41
0.0
 46
0.0
 71
     5
 72
     5
  1

  7
SPECBUD_TXT
 73
     1
 44
1.0
1001
ACAD
1000
MTEXTBEGIN
1070
    73
1070
     1
1070
    44
1040
1.0
1070
    74
1070
     0
1000
MTEXTEND
  0
MTEXT
  5
ED
330
D
100
AcDbEntity
  8
0
100
AcDbMText
 10
10.9
 20
-203.49
 30
0.0
 40
5.0
 41
0.0
 46
0.0
 71
     5
 72
     5
  1
13
  7
SPECBUD_TXT
 73
     1
 44
1.0
1001
ACAD
1000
MTEXTBEGIN
1070
    73
1070
     1
1070
    44
1040
1.0
1070
    74
1070
     0
1000
MTEXTEND
  0
MTEXT
  5
EE
330
D
100
AcDbEntity
  8
0
100
AcDbMText
 10
40.2
 20
-203.49
 30
0.0
 40
5.0
 41
0.0
 46
0.0
 71
     5
 72
     5
  1
10
  7
SPECBUD_TXT
 73
     1
 44
1.0
1001
ACAD
1000
MTEXTBEGIN
1070
    73
1070
     1
1070
    44
1040
1.0
1070
    74
1070
     0
1000
MTEXTEND
  0
MTEXT
  5
EF
330
D
100
AcDbEntity
  8
0
100
AcDbMText
 10
82.09999999999999
 20
-203.49
 30
0.0
 40
5.0
 41
0.0
 46
0.0
 71
     5
 72
     5
  1
850
  7
SPECBUD_TXT
 73
     1
 44
1.0
1001
ACAD
1000
MTEXTBEGIN
1070
    73
1070
     1
1070
    44
1040
1.0
1070
    74
1070
     0
1000
MTEXTEND
  0
MTEXT
  5
F0
330
D
100
AcDbEntity
  8
0
100
AcDbMText
 10
129.1
 20
-203.49
 30
0.0
 40
5.0
 41
0.0
 46
0.0
 71
     5
 72
     5
  1
80
  7
SPECBUD_TXT
 73
     1
 44
1.0
1001
ACAD
1000
MTEXTBEGIN
1070
    73
1070
     1
1070
    44
1040
1.0
1070
    74
1070
     0
1000
MTEXTEND
  0
MTEXT
  5
F1
330
D
100
AcDbEntity
  8
0
100
AcDbMText
 10
176.1
 20
-203.49
 30
0.0
 40
5.0
 41
0.0
 46
0.0
 71
     5
 72
     5
  1
4
  7
SPECBUD_TXT
 73
     1
 44
1.0
1001
ACAD
1000
MTEXTBEGIN
1070
    73
1070
     1
1070
    44
1040
1.0
1070
    74
1070
     0
1000
MTEXTEND
  0
MTEXT
  5
F2
330
D
100
AcDbEntity
  8
0
100
AcDbMText
 10
223.1
 20
-203.49
 30
0.0
 40
5.0
 41
0.0
 46
0.0
 71
     5
 72
     5
  1
320
  7
SPECBUD_TXT
 73
     1
 44
1.0
1001
ACAD
1000
MTEXTBEGIN
1070
    73
1070
     1
1070
    44
1040
1.0
1070
    74
1070
     0
1000
MTEXTEND
  0
MTEXT
  5
F3
330
D
100
AcDbEntity
  8
0
100
AcDbMText
 10
261.47
 20
-203.5
 30
0.0
 40
5.0
 41
0.0
 46
0.0
 71
     5
 72
     5
  1

  7
SPECBUD_TXT
 73
     1
 44
1.0
1001
ACAD
1000
MTEXTBEGIN
1070
    73
1070
     1
1070
    44
1040
1.0
1070
    74
1070
     0
1000
MTEXTEND
  0
MTEXT
  5
F4
330
D
100
AcDbEntity
  8
0
100
AcDbMText
 10
293.19
 20
-203.5
 30
0.0
 40
5.0
 41
0.0
 46
0.0
 71
     5
 72
     5
  1

  7
SPECBUD_TXT
 73
     1
 44
1.0
1001
ACAD
1000
MTEXTBEGIN
1070
    73
1070
     1
1070
    44
1040
1.0
1070
    74
1070
     0
1000
MTEXTEND
  0
MTEXT
  5
F5
330
D
100
AcDbEntity
  8
0
100
AcDbMText
 10
326.87
 20
-203.49
 30
0.0
 40
5.0
 41
0.0
 46
0.0
 71
     5
 72
     5
  1
272,00
  7
SPECBUD_TXT
 73
     1
 44
1.0
1001
ACAD
1000
MTEXTBEGIN
1070
    73
1070
     1
1070
    44
1040
1.0
1070
    74
1070
     0
1000
MTEXTEND
  0
MTEXT
  5
F6
330
D
100
AcDbEntity
  8
0
100
AcDbMText
 10
360.55
 20
-203.5
 30
0.0
 40
5.0
 41
0.0
 46
0.0
 71
     5
 72
     5
  1

  7
SPECBUD_TXT
 73
     1
 44
1.0
1001
ACAD
1000
MTEXTBEGIN
1070
    73
1070
     1
1070
    44
1040
1.0
1070
    74
1070
     0
1000
MTEXTEND
  0
MTEXT
  5
F7
330
D
100
AcDbEntity
  8
0
100
AcDbMText
 10
3.529999999999999
 20
-214.49
 30
0.0
 40
5.0
 41
0.0
 46
0.0
 71
     4
 72
     5
  1
Всего длина по диаметрам
  7
SPECBUD_TXT
 73
     1
 44
1.0
1001
ACAD
1000
MTEXTBEGIN
1070
    73
1070
     1
1070
    44
1040
1.0
1070
    74
1070
     0
1000
MTEXTEND
  0
MTEXT
  5
F8
330
D
100
AcDbEntity
  8
0
100
AcDbMText
 10
243.07
 20
-214.49
 30
0.0
 40
5.0
 41
0.0
 46
0.0
 71
     6
 72
     5
  1
[м]
  7
SPECBUD_TXT
 73
     1
 44
1.0
1001
ACAD
1000
MTEXTBEGIN
1070
    73
1070
     1
1070
    44
1040
1.0
1070
    74
1070
     0
1000
MTEXTEND
  0
MTEXT
  5
F9
330
D
100
AcDbEntity
  8
0
100
AcDbMText
 10
261.47
 20
-214.49
 30
0.0
 40
5.0
 41
0.0
 46
0.0
 71
     5
 72
     5
  1
307,4
  7
SPECBUD_TXT
 73
     1
 44
1.0
1001
ACAD
1000
MTEXTBEGIN
1070
    73
1070
     1
1070
    44
1040
1.0
1070
    74
1070
     0
1000
MTEXTEND
  0
MTEXT
  5
FA
330
D
100
AcDbEntity
  8
0
100
AcDbMText
 10
293.19
 20
-214.49
 30
0.0
 40
5.0
 41
0.0
 46
0.0
 71
     5
 72
     5
  1
311,7
  7
SPECBUD_TXT
 73
     1
 44
1.0
1001
ACAD
1000
MTEXTBEGIN
1070
    73
1070
     1
1070
    44
1040
1.0
1070
    74
1070
     0
1000
MTEXTEND
  0
MTEXT
  5
FB
330
D
100
AcDbEntity
  8
0
100
AcDbMText
 10
326.87
 20
-214.49
 30
0.0
 40
5.0
 41
0.0
 46
0.0
 71
     5
 72
     5
  1
381,8
  7
SPECBUD_TXT
 73
     1
 44
1.0
1001
ACAD
1000
MTEXTBEGIN
1070
    73
1070
     1
1070
    44
1040
1.0
1070
    74
1070
     0
1000
MTEXTEND
  0
MTEXT
  5
FC
330
D
100
AcDbEntity
  8
0
100
AcDbMText
 10
360.55
 20
-214.49
 30
0.0
 40
5.0
 41
0.0
 46
0.0
 71
     5
 72
     5
  1
387,6
  7
SPECBUD_TXT
 73
     1
 44
1.0
1001
ACAD
1000
MTEXTBEGIN
1070
    73
1070
     1
1070
    44
1040
1.0
1070
    74
1070
     0
1000
MTEXTEND
  0
MTEXT
  5
FD
330
D
100
AcDbEntity
  8
0
100
AcDbMText
 10
3.529999999999999
 20
-225.49
 30
0.0
 40
5.0
 41
0.0
 46
0.0
 71
     4
 72
     5
  1
Масса 1 м.п. стержня
  7
SPECBUD_TXT
 73
     1
 44
1.0
1001
ACAD
1000
MTEXTBEGIN
1070
    73
1070
     1
1070
    44
1040
1.0
1070
    74
1070
     0
1000
MTEXTEND
  0
MTEXT
  5
FE
330
D
100
AcDbEntity
  8
0
100
AcDbMText
 10
243.07
 20
-225.49
 30
0.0
 40
5.0
 41
0.0
 46
0.0
 71
     6
 72
     5
  1
[кг/м]
  7
SPECBUD_TXT
 73
     1
 44
1.0
1001
ACAD
1000
MTEXTBEGIN
1070
    73
1070
     1
1070
    44
1040
1.0
1070
    74
1070
     0
1000
MTEXTEND
  0
MTEXT
  5
FF
330
D
100
AcDbEntity
  8
0
100
AcDbMText
 10
261.47
 20
-225.49
 30
0.0
 40
5.0
 41
0.0
 46
0.0
 71
     5
 72
     5
  1
0,395
  7
SPECBUD_TXT
 73
     1
 44
1.0
1001
ACAD
1000
MTEXTBEGIN
1070
    73
1070
     1
1070
    44
1040
1.0
1070
    74
1070
     0
1000
MTEXTEND
  0
MTEXT
  5
100
330
D
100
AcDbEntity
  8
0
100
AcDbMText
 10
293.19
 20
-225.49
 30
0.0
 40
5.0
 41
0.0
 46
0.0
 71
     5
 72
     5
  1
0,395
  7
SPECBUD_TXT
 73
     1
 44
1.0
1001
ACAD
1000
MTEXTBEGIN
1070
    73
1070
     1
1070
    44
1040
1.0
1070
    74
1070
     0
1000
MTEXTEND
  0
MTEXT
  5
101
330
D
100
AcDbEntity
  8
0
100
AcDbMText
 10
326.87
 20
-225.49
 30
0.0
 40
5.0
 41
0.0
 46
0.0
 71
     5
 72
     5
  1
0,617
  7
SPECBUD_TXT
 73
     1
 44
1.0
1001
ACAD
1000
MTEXTBEGIN
1070
    73
1070
     1
1070
    44
1040
1.0
1070
    74
1070
     0
1000
MTEXTEND
  0
MTEXT
  5
102
330
D
100
AcDbEntity
  8
0
100
AcDbMText
 10
360.55
 20
-225.49
 30
0.0
 40
5.0
 41
0.0
 46
0.0
 71
     5
 72
     5
  1
0,888
  7
SPECBUD_TXT
 73
     1
 44
1.0
1001
ACAD
1000
MTEXTBEGIN
1070
    73
1070
     1
1070
    44
1040
1.0
1070
    74
1070
     0
1000
MTEXTEND
  0
MTEXT
  5
103
330
D
100
AcDbEntity
  8
0
100
AcDbMText
 10
3.529999999999999
 20
-236.49
 30
0.0
 40
5.0
 41
0.0
 46
0.0
 71
     4
 72
     5
  1
Масса стержней по диаметрам
  7
SPECBUD_TXT
 73
     1
 44
1.0
1001
ACAD
1000
MTEXTBEGIN
1070
    73
1070
     1
1070
    44
1040
1.0
1070
    74
1070
     0
1000
MTEXTEND
  0
MTEXT
  5
104
330
D
100
AcDbEntity
  8
0
100
AcDbMText
 10
243.07
 20
-236.49
 30
0.0
 40
5.0
 41
0.0
 46
0.0
 71
     6
 72
     5
  1
[кг]
  7
SPECBUD_TXT
 73
     1
 44
1.0
1001
ACAD
1000
MTEXTBEGIN
1070
    73
1070
     1
1070
    44
1040
1.0
1070
    74
1070
     0
1000
MTEXTEND
  0
MTEXT
  5
105
330
D
100
AcDbEntity
  8
0
100
AcDbMText
 10
261.47
 20
-236.49
 30
0.0
 40
5.0
 41
0.0
 46
0.0
 71
     5
 72
     5
  1
121,4
  7
SPECBUD_TXT
 73
     1
 44
1.0
1001
ACAD
1000
MTEXTBEGIN
1070
    73
1070
     1
1070
    44
1040
1.0
1070
    74
1070
     0
1000
MTEXTEND
  0
MTEXT
  5
106
330
D
100
AcDbEntity
  8
0
100
AcDbMText
 10
293.19
 20
-236.49
 30
0.0
 40
5.0
 41
0.0
 46
0.0
 71
     5
 72
     5
  1
123,1
  7
SPECBUD_TXT
 73
     1
 44
1.0
1001
ACAD
1000
MTEXTBEGIN
1070
    73
1070
     1
1070
    44
1040
1.0
1070
    74
1070
     0
1000
MTEXTEND
  0
MTEXT
  5
107
330
D
100
AcDbEntity
  8
0
100
AcDbMText
 10
326.87
 20
-236.49
 30
0.0
 40
5.0
 41
0.0
 46
0.0
 71
     5
 72
     5
  1
235,6
  7
SPECBUD_TXT
 73
     1
 44
1.0
1001
ACAD
1000
MTEXTBEGIN
1070
    73
1070
     1
1070
    44
1040
1.0
1070
    74
1070
     0
1000
MTEXTEND
  0
MTEXT
  5
108
330
D
100
AcDbEntity
  8
0
100
AcDbMText
 10
360.55
 20
-236.49
 30
0.0
 40
5.0
 41
0.0
 46
0.0
 71
     5
 72
     5
  1
344,2
  7
SPECBUD_TXT
 73
     1
 44
1.0
1001
ACAD
1000
MTEXTBEGIN
1070
    73
1070
     1
1070
    44
1040
1.0
1070
    74
1070
     0
1000
MTEXTEND
  0
MTEXT
  5
109
330
D
100
AcDbEntity
  8
0
100
AcDbMText
 10
3.529999999999999
 20
-247.49
 30
0.0
 40
5.0
 41
0.0
 46
0.0
 71
     4
 72
     5
  1
Масса стержней по классам стали
  7
SPECBUD_TXT
 73
     1
 44
1.0
1001
ACAD
1000
MTEXTBEGIN
1070
    73
1070
     1
1070
    44
1040
1.0
1070
    74
1070
     0
1000
MTEXTEND
  0
MTEXT
  5
10A
330
D
100
AcDbEntity
  8
0
100
AcDbMText
 10
243.07
 20
-247.49
 30
0.0
 40
5.0
 41
0.0
 46
0.0
 71
     6
 72
     5
  1
[кг]
  7
SPECBUD_TXT
 73
     1
 44
1.0
1001
ACAD
1000
MTEXTBEGIN
1070
    73
1070
     1
1070
    44
1040
1.0
1070
    74
1070
     0
1000
MTEXTEND
  0
MTEXT
  5
10B
330
D
100
AcDbEntity
  8
0
100
AcDbMText
 10
261.47
 20
-247.49
 30
0.0
 40
5.0
 41
0.0
 46
0.0
 71
     5
 72
     5
  1
121,4
  7
SPECBUD_TXT
 73
     1
 44
1.0
1001
ACAD
1000
MTEXTBEGIN
1070
    73
1070
     1
1070
    44
1040
1.0
1070
    74
1070
     0
1000
MTEXTEND
  0
MTEXT
  5
10C
330
D
100
AcDbEntity
  8
0
100
AcDbMText
 10
326.87
 20
-247.49
 30
0.0
 40
5.0
 41
0.0
 46
0.0
 71
     5
 72
     5
  1
702,9
  7
SPECBUD_TXT
 73
     1
 44
1.0
1001
ACAD
1000
MTEXTBEGIN
1070
    73
1070
     1
1070
    44
1040
1.0
1070
    74
1070
     0
1000
MTEXTEND
  0
MTEXT
  5
10D
330
D
100
AcDbEntity
  8
0
100
AcDbMText
 10
3.529999999999999
 20
-258.49
 30
0.0
 40
5.0
 41
0.0
 46
0.0
 71
     4
 72
     5
  1
Всего масса
  7
SPECBUD_TXT
 73
     1
 44
1.0
1001
ACAD
1000
MTEXTBEGIN
1070
    73
1070
     1
1070
    44
1040
1.0
1070
    74
1070
     0
1000
MTEXTEND
  0
MTEXT
  5
10E
330
D
100
AcDbEntity
  8
0
100
AcDbMText
 10
243.07
 20
-258.49
 30
0.0
 40
5.0
 41
0.0
 46
0.0
 71
     6
 72
     5
  1
[кг]
  7
SPECBUD_TXT
 73
     1
 44
1.0
1001
ACAD
1000
MTEXTBEGIN
1070
    73
1070
     1
1070
    44
1040
1.0
1070
    74
1070
     0
1000
MTEXTEND
  0
MTEXT
  5
10F
330
D
100
AcDbEntity
  8
0
100
AcDbMText
 10
311.99
 20
-258.49
 30
0.0
 40
5.0
 41
0.0
 46
0.0
 71
     5
 72
     5
  1
825
  7
SPECBUD_TXT
 73
     1
 44
1.0
1001
ACAD
1000
MTEXTBEGIN
1070
    73
1070
     1
1070
    44
1040
1.0
1070
    74
1070
     0
1000
MTEXTEND
  0
LINE
  5
20
330
D
100
AcDbEntity
  8
0
 62
   153
100
AcDbLine
 10
105.6
 20
-22.0
 30
0.0
 11
377.39
 21
-22.0
 31
0.0
  0
LINE
  5
21
330
D
100
AcDbEntity
  8
0
 62
   153
100
AcDbLine
 10
246.6
 20
-33.0
 30
0.0
 11
377.39
 21
-33.0
 31
0.0
  0
LINE
  5
22
330
D
100
AcDbEntity
  8
0
 62
   153
100
AcDbLine
 10
0.0
 20
-55.0
 30
0.0
 11
377.39
 21
-55.0
 31
0.0
  0
LINE
  5
23
330
D
100
AcDbEntity
  8
0
 62
   153
100
AcDbLine
 10
0.0
 20
-66.0
 30
0.0
 11
377.39
 21
-66.0
 31
0.0
  0
LINE
  5
24
330
D
100
AcDbEntity
  8
0
 62
   153
100
AcDbLine
 10
0.0
 20
-77.0
 30
0.0
 11
377.39
 21
-77.0
 31
0.0
  0
LINE
  5
25
330
D
100
AcDbEntity
  8
0
 62
   153
100
AcDbLine
 10
0.0
 20
-88.0
 30
0.0
 11
377.39
 21
-88.0
 31
0.0
  0
LINE
  5
26
330
D
100
AcDbEntity
  8
0
 62
   153
100
AcDbLine
 10
0.0
 20
-99.0
 30
0.0
 11
377.39
 21
-99.0
 31
0.0
  0
LINE
  5
27
330
D
100
AcDbEntity
  8
0
 62
   153
100
AcDbLine
 10
0.0
 20
-110.0
 30
0.0
 11
377.39
 21
-110.0
 31
0.0
  0
LINE
  5
28
330
D
100
AcDbEntity
  8
0
 62
   153
100
AcDbLine
 10
0.0
 20
-121.0
 30
0.0
 11
377.39
 21
-121.0
 31
0.0
  0
LINE
  5
29
330
D
100
AcDbEntity
  8
0
 62
   153
100
AcDbLine
 10
0.0
 20
-132.0
 30
0.0
 11
377.39
 21
-132.0
 31
0.0
  0
LINE
  5
2A
330
D
100
AcDbEntity
  8
0
 62
   153
100
AcDbLine
 10
0.0
 20
-143.0
 30
0.0
 11
377.39
 21
-143.0
 31
0.0
  0
LINE
  5
2B
330
D
100
AcDbEntity
  8
0
 62
   153
100
AcDbLine
 10
0.0
 20
-154.0
 30
0.0
 11
377.39
 21
-154.0
 31
0.0
  0
LINE
  5
2C
330
D
100
AcDbEntity
  8
0
 62
   153
100
AcDbLine
 10
0.0
 20
-165.0
 30
0.0
 11
377.39
 21
-165.0
 31
0.0
  0
LINE
  5
2D
330
D
100
AcDbEntity
  8
0
 62
   153
100
AcDbLine
 10
0.0
 20
-176.0
 30
0.0
 11
377.39
 21
-176.0
 31
0.0
  0
LINE
  5
2E
330
D
100
AcDbEntity
  8
0
 62
   153
100
AcDbLine
 10
0.0
 20
-187.0
 30
0.0
 11
377.39
 21
-187.0
 31
0.0
  0
LINE
  5
2F
330
D
100
AcDbEntity
  8
0
 62
   153
100
AcDbLine
 10
0.0
 20
-198.0
 30
0.0
 11
377.39
 21
-198.0
 31
0.0
  0
LINE
  5
30
330
D
100
AcDbEntity
  8
0
 62
   153
100
AcDbLine
 10
0.0
 20
-220.0
 30
0.0
 11
377.39
 21
-220.0
 31
0.0
  0
LINE
  5
31
330
D
100
AcDbEntity
  8
0
 62
   153
100
AcDbLine
 10
0.0
 20
-231.0
 30
0.0
 11
377.39
 21
-231.0
 31
0.0
  0
LINE
  5
32
330
D
100
AcDbEntity
  8
0
 62
   153
100
AcDbLine
 10
0.0
 20
-242.0
 30
0.0
 11
377.39
 21
-242.0
 31
0.0
  0
LINE
  5
33
330
D
100
AcDbEntity
  8
0
 62
   153
100
AcDbLine
 10
0.0
 20
-253.0
 30
0.0
 11
377.39
 21
-253.0
 31
0.0
  0
LINE
  5
34
330
D
100
AcDbEntity
  8
0
 62
   153
100
AcDbLine
 10
105.6
 20
-44.0
 30
0.0
 11
105.6
 21
-11.0
 31
0.0
  0
LINE
  5
35
330
D
100
AcDbEntity
  8
0
 62
   153
100
AcDbLine
 10
21.81
 20
-44.0
 30
0.0
 11
21.81
 21
-11.0
 31
0.0
  0
LINE
  5
36
330
D
100
AcDbEntity
  8
0
 62
   153
100
AcDbLine
 10
58.6
 20
-44.0
 30
0.0
 11
58.6
 21
-11.0
 31
0.0
  0
LINE
  5
37
330
D
100
AcDbEntity
  8
0
 62
   153
100
AcDbLine
 10
246.6
 20
-44.0
 30
0.0
 11
246.6
 21
-11.0
 31
0.0
  0
LINE
  5
38
330
D
100
AcDbEntity
  8
0
 62
   153
100
AcDbLine
 10
152.6
 20
-44.0
 30
0.0
 11
152.6
 21
-22.0
 31
0.0
  0
LINE
  5
39
330
D
100
AcDbEntity
  8
0
 62
   153
100
AcDbLine
 10
199.6
 20
-44.0
 30
0.0
 11
199.6
 21
-22.0
 31
0.0
  0
LINE
  5
3A
330
D
100
AcDbEntity
  8
0
 62
   153
100
AcDbLine
 10
276.35
 20
-44.0
 30
0.0
 11
276.35
 21
-22.0
 31
0.0
  0
LINE
  5
3B
330
D
100
AcDbEntity
  8
0
 62
   153
100
AcDbLine
 10
310.03
 20
-33.0
 30
0.0
 11
310.03
 21
-44.0
 31
0.0
  0
LINE
  5
3C
330
D
100
AcDbEntity
  8
0
 62
   153
100
AcDbLine
 10
343.71
 20
-33.0
 30
0.0
 11
343.71
 21
-44.0
 31
0.0
  0
LINE
  5
3D
330
D
100
AcDbEntity
  8
0
 62
   153
100
AcDbLine
 10
21.81
 20
-154.0
 30
0.0
 11
21.81
 21
-55.0
 31
0.0
  0
LINE
  5
3E
330
D
100
AcDbEntity
  8
0
 62
   153
100
AcDbLine
 10
58.6
 20
-154.0
 30
0.0
 11
58.6
 21
-55.0
 31
0.0
  0
LINE
  5
3F
330
D
100
AcDbEntity
  8
0
 62
   153
100
AcDbLine
 10
105.6
 20
-154.0
 30
0.0
 11
105.6
 21
-55.0
 31
0.0
  0
LINE
  5
40
330
D
100
AcDbEntity
  8
0
 62
   153
100
AcDbLine
 10
152.6
 20
-154.0
 30
0.0
 11
152.6
 21
-55.0
 31
0.0
  0
LINE
  5
41
330
D
100
AcDbEntity
  8
0
 62
   153
100
AcDbLine
 10
199.6
 20
-154.0
 30
0.0
 11
199.6
 21
-55.0
 31
0.0
  0
LINE
  5
42
330
D
100
AcDbEntity
  8
0
 62
   153
100
AcDbLine
 10
246.6
 20
-154.0
 30
0.0
 11
246.6
 21
-55.0
 31
0.0
  0
LINE
  5
43
330
D
100
AcDbEntity
  8
0
 62
   153
100
AcDbLine
 10
276.35
 20
-154.0
 30
0.0
 11
276.35
 21
-55.0
 31
0.0
  0
LINE
  5
44
330
D
100
AcDbEntity
  8
0
 62
   153
100
AcDbLine
 10
310.03
 20
-154.0
 30
0.0
 11
310.03
 21
-55.0
 31
0.0
  0
LINE
  5
45
330
D
100
AcDbEntity
  8
0
 62
   153
100
AcDbLine
 10
343.71
 20
-154.0
 30
0.0
 11
343.71
 21
-55.0
 31
0.0
  0
LINE
  5
46
330
D
100
AcDbEntity
  8
0
 62
   153
100
AcDbLine
 10
21.81
 20
-209.0
 30
0.0
 11
21.81
 21
-165.0
 31
0.0
  0
LINE
  5
47
330
D
100
AcDbEntity
  8
0
 62
   153
100
AcDbLine
 10
58.6
 20
-209.0
 30
0.0
 11
58.6
 21
-165.0
 31
0.0
  0
LINE
  5
48
330
D
100
AcDbEntity
  8
0
 62
   153
100
AcDbLine
 10
105.6
 20
-209.0
 30
0.0
 11
105.6
 21
-165.0
 31
0.0
  0
LINE
  5
49
330
D
100
AcDbEntity
  8
0
 62
   153
100
AcDbLine
 10
152.6
 20
-209.0
 30
0.0
 11
152.6
 21
-165.0
 31
0.0
  0
LINE
  5
4A
330
D
100
AcDbEntity
  8
0
 62
   153
100
AcDbLine
 10
199.6
 20
-209.0
 30
0.0
 11
199.6
 21
-165.0
 31
0.0
  0
LINE
  5
4B
330
D
100
AcDbEntity
  8
0
 62
   153
100
AcDbLine
 10
246.6
 20
-264.0
 30
0.0
 11
246.6
 21
-165.0
 31
0.0
  0
LINE
  5
4C
330
D
100
AcDbEntity
  8
0
 62
   153
100
AcDbLine
 10
276.35
 20
-253.0
 30
0.0
 11
276.35
 21
-165.0
 31
0.0
  0
LINE
  5
4D
330
D
100
AcDbEntity
  8
0
 62
   153
100
AcDbLine
 10
310.03
 20
-242.0
 30
0.0
 11
310.03
 21
-165.0
 31
0.0
  0
LINE
  5
4E
330
D
100
AcDbEntity
  8
0
 62
   153
100
AcDbLine
 10
343.71
 20
-242.0
 30
0.0
 11
343.71
 21
-165.0
 31
0.0
  0
LINE
  5
4F
330
D
100
AcDbEntity
  8
0
 62
    22
100
AcDbLine
 10
0.0
 20
-11.0
 30
0.0
 11
377.39
 21
-11.0
 31
0.0
  0
LINE
  5
50
330
D
100
AcDbEntity
  8
0
 62
    22
100
AcDbLine
 10
0.0
 20
-264.0
 30
0.0
 11
0.0
 21
-11.0
 31
0.0
  0
LINE
  5
51
330
D
100
AcDbEntity
  8
0
 62
    22
100
AcDbLine
 10
377.39
 20
-264.0
 30
0.0
 11
377.39
 21
-11.0
 31
0.0
  0
LINE
  5
52
330
D
100
AcDbEntity
  8
0
 62
    22
100
AcDbLine
 10
0.0
 20
-44.0
 30
0.0
 11
377.39
 21
-44.0
 31
0.0
  0
LINE
  5
53
330
D
100
AcDbEntity
  8
0
 62
    22
100
AcDbLine
 10
0.0
 20
-209.0
 30
0.0
 11
377.39
 21
-209.0
 31
0.0
  0
LINE
  5
54
330
D
100
AcDbEntity
  8
0
 62
    22
100
AcDbLine
 10
0.0
 20
-264.0
 30
0.0
 11
377.39
 21
-264.0
 31
0.0
  0
LINE
  5
1D2
330
D
100
AcDbEntity
  8
0
 62
   153
100
AcDbLine
 10
363.6097300056333
 20
-299.3610387715098
 30
0.0
 11
473.6480340419209
 21
-299.3610387715098
 31
0.0
  0
LINE
  5
1D3
330
D
100
AcDbEntity
  8
0
 62
    22
100
AcDbLine
 10
-0.0000000000000072
 20
-321.3610387715098
 30
0.0
 11
560.2966639237851
 21
-321.3610387715098
 31
0.0
  0
LINE
  5
1D4
330
D
100
AcDbEntity
  8
0
 62
   153
100
AcDbLine
 10
-0.0000000000000072
 20
-332.3610387715098
 30
0.0
 11
560.2966639237851
 21
-332.3610387715098
 31
0.0
  0
LINE
  5
1D5
330
D
100
AcDbEntity
  8
0
 62
   153
100
AcDbLine
 10
-0.0000000000000072
 20
-343.3610387715098
 30
0.0
 11
560.2966639237851
 21
-343.3610387715098
 31
0.0
  0
LINE
  5
1D6
330
D
100
AcDbEntity
  8
0
 62
   153
100
AcDbLine
 10
-0.0000000000000072
 20
-365.3610387715098
 30
0.0
 11
560.2966639237851
 21
-365.3610387715098
 31
0.0
  0
LINE
  5
1D7
330
D
100
AcDbEntity
  8
0
 62
   153
100
AcDbLine
 10
16.30999999999999
 20
-321.3610387715098
 30
0.0
 11
16.30999999999999
 21
-288.3610387715098
 31
0.0
  0
LINE
  5
1D8
330
D
100
AcDbEntity
  8
0
 62
   153
100
AcDbLine
 10
89.33999999999999
 20
-321.3610387715098
 30
0.0
 11
89.33999999999999
 21
-288.3610387715098
 31
0.0
  0
LINE
  5
1D9
330
D
100
AcDbEntity
  8
0
 62
   153
100
AcDbLine
 10
142.3209606504719
 20
-321.3610387715098
 30
0.0
 11
142.3209606504719
 21
-288.3610387715098
 31
0.0
  0
LINE
  5
1DA
330
D
100
AcDbEntity
  8
0
 62
   153
100
AcDbLine
 10
192.659388187615
 20
-321.3610387715098
 30
0.0
 11
192.659388187615
 21
-288.3610387715098
 31
0.0
  0
LINE
  5
1DB
330
D
100
AcDbEntity
  8
0
 62
   153
100
AcDbLine
 10
256.2878087046894
 20
-321.3610387715098
 30
0.0
 11
256.2878087046894
 21
-288.3610387715098
 31
0.0
  0
LINE
  5
1DC
330
D
100
AcDbEntity
  8
0
 62
   153
100
AcDbLine
 10
310.3179551981134
 20
-321.3610387715098
 30
0.0
 11
310.3179551981134
 21
-288.3610387715098
 31
0.0
  0
LINE
  5
1DD
330
D
100
AcDbEntity
  8
0
 62
   153
100
AcDbLine
 10
363.6097300056333
 20
-321.3610387715098
 30
0.0
 11
363.6097300056333
 21
-288.3610387715098
 31
0.0
  0
LINE
  5
1DE
330
D
100
AcDbEntity
  8
0
 62
   153
100
AcDbLine
 10
509.2198647006799
 20
-321.3610387715098
 30
0.0
 11
509.2198647006799
 21
-288.3610387715098
 31
0.0
  0
LINE
  5
1DF
330
D
100
AcDbEntity
  8
0
 62
   153
100
AcDbLine
 10
473.6480340419209
 20
-321.3610387715098
 30
0.0
 11
473.6480340419209
 21
-288.3610387715098
 31
0.0
  0
LINE
  5
1E0
330
D
100
AcDbEntity
  8
0
 62
   153
100
AcDbLine
 10
407.3033702628582
 20
-321.3610387715098
 30
0.0
 11
407.3033702628582
 21
-299.3610387715098
 31
0.0
  0
LINE
  5
1E1
330
D
100
AcDbEntity
  8
0
 62
   153
100
AcDbLine
 10
448.0436632497352
 20
-321.3610387715098
 30
0.0
 11
448.0436632497352
 21
-299.3610387715098
 31
0.0
  0
LINE
  5
1E2
330
D
100
AcDbEntity
  8
0
 62
   153
100
AcDbLine
 10
16.30999999999999
 20
-354.3610387715098
 30
0.0
 11
16.30999999999999
 21
-332.3610387715098
 31
0.0
  0
LINE
  5
1E3
330
D
100
AcDbEntity
  8
0
 62
   153
100
AcDbLine
 10
89.33999999999999
 20
-354.3610387715098
 30
0.0
 11
89.33999999999999
 21
-332.3610387715098
 31
0.0
  0
LINE
  5
1E4
330
D
100
AcDbEntity
  8
0
 62
   153
100
AcDbLine
 10
142.3209606504719
 20
-354.3610387715098
 30
0.0
 11
142.3209606504719
 21
-332.3610387715098
 31
0.0
  0
LINE
  5
1E5
330
D
100
AcDbEntity
  8
0
 62
   153
100
AcDbLine
 10
192.659388187615
 20
-354.3610387715098
 30
0.0
 11
192.659388187615
 21
-332.3610387715098
 31
0.0
  0
LINE
  5
1E6
330
D
100
AcDbEntity
  8
0
 62
   153
100
AcDbLine
 10
256.2878087046894
 20
-354.3610387715098
 30
0.0
 11
256.2878087046894
 21
-332.3610387715098
 31
0.0
  0
LINE
  5
1E7
330
D
100
AcDbEntity
  8
0
 62
   153
100
AcDbLine
 10
310.3179551981134
 20
-354.3610387715098
 30
0.0
 11
310.3179551981134
 21
-332.3610387715098
 31
0.0
  0
LINE
  5
1E8
330
D
100
AcDbEntity
  8
0
 62
   153
100
AcDbLine
 10
363.6097300056333
 20
-354.3610387715098
 30
0.0
 11
363.6097300056333
 21
-332.3610387715098
 31
0.0
  0
LINE
  5
1E9
330
D
100
AcDbEntity
  8
0
 62
   153
100
AcDbLine
 10
407.3033702628582
 20
-354.3610387715098
 30
0.0
 11
407.3033702628582
 21
-332.3610387715098
 31
0.0
  0
LINE
  5
1EA
330
D
100
AcDbEntity
  8
0
 62
   153
100
AcDbLine
 10
448.0436632497352
 20
-354.3610387715098
 30
0.0
 11
448.0436632497352
 21
-332.3610387715098
 31
0.0
  0
LINE
  5
1EB
330
D
100
AcDbEntity
  8
0
 62
   153
100
AcDbLine
 10
473.6480340419209
 20
-376.3610387715098
 30
0.0
 11
473.6480340419209
 21
-332.3610387715098
 31
0.0
  0
LINE
  5
1EC
330
D
100
AcDbEntity
  8
0
 62
   153
100
AcDbLine
 10
509.2198647006799
 20
-376.3610387715098
 30
0.0
 11
509.2198647006799
 21
-332.3610387715098
 31
0.0
  0
LINE
  5
1ED
330
D
100
AcDbEntity
  8
0
 62
    22
100
AcDbLine
 10
-0.0000000000000072
 20
-288.3610387715098
 30
0.0
 11
560.2966639237851
 21
-288.3610387715098
 31
0.0
  0
LINE
  5
1EE
330
D
100
AcDbEntity
  8
0
 62
    22
100
AcDbLine
 10
-0.0000000000000072
 20
-376.3610387715098
 30
0.0
 11
-0.0000000000000072
 21
-288.3610387715098
 31
0.0
  0
LINE
  5
1EF
330
D
100
AcDbEntity
  8
0
 62
    22
100
AcDbLine
 10
560.2966639237851
 20
-376.3610387715098
 30
0.0
 11
560.2966639237851
 21
-288.3610387715098
 31
0.0
  0
LINE
  5
1F0
330
D
100
AcDbEntity
  8
0
 62
    22
100
AcDbLine
 10
-0.0000000000000072
 20
-321.3610387715098
 30
0.0
 11
560.2966639237851
 21
-321.3610387715098
 31
0.0
  0
LINE
  5
1F1
330
D
100
AcDbEntity
  8
0
 62
    22
100
AcDbLine
 10
-0.0000000000000072
 20
-354.3610387715098
 30
0.0
 11
560.2966639237851
 21
-354.3610387715098
 31
0.0
  0
LINE
  5
1F2
330
D
100
AcDbEntity
  8
0
 62
    22
100
AcDbLine
 10
-0.0000000000000072
 20
-376.3610387715098
 30
0.0
 11
560.2966639237851
 21
-376.3610387715098
 31
0.0
  0
MTEXT
  5
1F3
330
D
100
AcDbEntity
  8
0
100
AcDbMText
 10
-0.0000000000000072
 20
-281.9410387715098
 30
0.0
 40
5.0
 41
0.0
 46
0.0
 71
     4
 72
     5
  1
Спецификация сеток
  7
SPECBUD_TXT
 73
     1
 44
1.0
1001
ACAD
1000
MTEXTBEGIN
1070
    73
1070
     1
1070
    44
1040
1.0
1070
    74
1070
     0
1000
MTEXTEND
  0
MTEXT
  5
1F4
330
D
100
AcDbEntity
  8
0
100
AcDbMText
 10
-0.0000000000000072
 20
-281.9410387715098
 30
0.0
 40
5.0
 41
0.0
 46
0.0
 71
     4
 72
     5
  1
Спецификация сеток
  7
SPECBUD_TXT
 73
     1
 44
1.0
1001
ACAD
1000
MTEXTBEGIN
1070
    73
1070
     1
1070
    44
1040
1.0
1070
    74
1070
     0
1000
MTEXTEND
  0
MTEXT
  5
1F5
330
D
100
AcDbEntity
  8
0
100
AcDbMText
 10
-0.0000000000000072
 20
-281.9410387715098
 30
0.0
 40
5.0
 41
0.0
 46
0.0
 71
     4
 72
     5
  1
Спецификация сеток
  7
SPECBUD_TXT
 73
     1
 44
1.0
1001
ACAD
1000
MTEXTBEGIN
1070
    73
1070
     1
1070
    44
1040
1.0
1070
    74
1070
     0
1000
MTEXTEND
  0
MTEXT
  5
1F6
330
D
100
AcDbEntity
  8
0
100
AcDbMText
 10
-0.0000000000000072
 20
-281.9410387715098
 30
0.0
 40
5.0
 41
0.0
 46
0.0
 71
     4
 72
     5
  1
Спецификация сеток
  7
SPECBUD_TXT
 73
     1
 44
1.0
1001
ACAD
1000
MTEXTBEGIN
1070
    73
1070
     1
1070
    44
1040
1.0
1070
    74
1070
     0
1000
MTEXTEND
  0
MTEXT
  5
1F7
330
D
100
AcDbEntity
  8
0
100
AcDbMText
 10
-0.0000000000000072
 20
-281.9410387715098
 30
0.0
 40
5.0
 41
0.0
 46
0.0
 71
     4
 72
     5
  1
Спецификация сеток
  7
SPECBUD_TXT
 73
     1
 44
1.0
1001
ACAD
1000
MTEXTBEGIN
1070
    73
1070
     1
1070
    44
1040
1.0
1070
    74
1070
     0
1000
MTEXTEND
  0
MTEXT
  5
1F8
330
D
100
AcDbEntity
  8
0
100
AcDbMText
 10
491.0648332649969
 20
-293.8510387715098
 30
0.0
 40
5.0
 41
0.0
 46
0.0
 71
     5
 72
     5
  1
Общая
  7
SPECBUD_TXT
 73
     1
 44
1.0
1001
ACAD
1000
MTEXTBEGIN
1070
    73
1070
     1
1070
    44
1040
1.0
1070
    74
1070
     0
1000
MTEXTEND
  0
MTEXT
  5
1F9
330
D
100
AcDbEntity
  8
0
100
AcDbMText
 10
416.5984993608528
 20
-293.8510387715098
 30
0.0
 40
5.0
 41
0.0
 46
0.0
 71
     5
 72
     5
  1
Количество [шт.]
  7
SPECBUD_TXT
 73
     1
 44
1.0
1001
ACAD
1000
MTEXTBEGIN
1070
    73
1070
     1
1070
    44
1040
1.0
1070
    74
1070
     0
1000
MTEXTEND
  0
MTEXT
  5
1FA
330
D
100
AcDbEntity
  8
0
100
AcDbMText
 10
8.149999999999993
 20
-304.8510387715098
 30
0.0
 40
5.0
 41
0.0
 46
0.0
 71
     5
 72
     5
  1
№
  7
SPECBUD_TXT
 73
     1
 44
1.0
1001
ACAD
1000
MTEXTBEGIN
1070
    73
1070
     1
1070
    44
1040
1.0
1070
    74
1070
     0
1000
MTEXTEND
  0
MTEXT
  5
1FB
330
D
100
AcDbEntity
  8
0
100
AcDbMText
 10
52.82
 20
-304.8510387715098
 30
0.0
 40
5.0
 41
0.0
 46
0.0
 71
     5
 72
     5
  1
Тип
  7
SPECBUD_TXT
 73
     1
 44
1.0
1001
ACAD
1000
MTEXTBEGIN
1070
    73
1070
     1
1070
    44
1040
1.0
1070
    74
1070
     0
1000
MTEXTEND
  0
MTEXT
  5
1FC
330
D
100
AcDbEntity
  8
0
100
AcDbMText
 10
122.66
 20
-304.8510387715098
 30
0.0
 40
5.0
 41
0.0
 46
0.0
 71
     5
 72
     5
  1
Сталь
  7
SPECBUD_TXT
 73
     1
 44
1.0
1001
ACAD
1000
MTEXTBEGIN
1070
    73
1070
     1
1070
    44
1040
1.0
1070
    74
1070
     0
1000
MTEXTEND
  0
MTEXT
  5
1FD
330
D
100
AcDbEntity
  8
0
100
AcDbMText
 10
168.5976622112654
 20
-304.8510387715098
 30
0.0
 40
5.0
 41
0.0
 46
0.0
 71
     5
 72
     5
  1
Диаметр
  7
SPECBUD_TXT
 73
     1
 44
1.0
1001
ACAD
1000
MTEXTBEGIN
1070
    73
1070
     1
1070
    44
1040
1.0
1070
    74
1070
     0
1000
MTEXTEND
  0
MTEXT
  5
1FE
330
D
100
AcDbEntity
  8
0
100
AcDbMText
 10
226.319388187615
 20
-304.8510387715098
 30
0.0
 40
5.0
 41
0.0
 46
0.0
 71
     5
 72
     5
  1
Размер решетки
  7
SPECBUD_TXT
 73
     1
 44
1.0
1001
ACAD
1000
MTEXTBEGIN
1070
    73
1070
     1
1070
    44
1040
1.0
1070
    74
1070
     0
1000
MTEXTEND
  0
MTEXT
  5
1FF
330
D
100
AcDbEntity
  8
0
100
AcDbMText
 10
282.9336961084348
 20
-304.8510387715098
 30
0.0
 40
5.0
 41
0.0
 46
0.0
 71
     5
 72
     5
  1
Размер сетки
  7
SPECBUD_TXT
 73
     1
 44
1.0
1001
ACAD
1000
MTEXTBEGIN
1070
    73
1070
     1
1070
    44
1040
1.0
1070
    74
1070
     0
1000
MTEXTEND
  0
MTEXT
  5
200
330
D
100
AcDbEntity
  8
0
100
AcDbMText
 10
337.7022142877919
 20
-304.8510387715098
 30
0.0
 40
5.0
 41
0.0
 46
0.0
 71
     5
 72
     5
  1
Масса 1 сетки
  7
SPECBUD_TXT
 73
     1
 44
1.0
1001
ACAD
1000
MTEXTBEGIN
1070
    73
1070
     1
1070
    44
1040
1.0
1070
    74
1070
     0
1000
MTEXTEND
  0
MTEXT
  5
201
330
D
100
AcDbEntity
  8
0
100
AcDbMText
 10
386.1948520835012
 20
-304.8510387715098
 30
0.0
 40
5.0
 41
0.0
 46
0.0
 71
     5
 72
     5
  1
сеток в
  7
SPECBUD_TXT
 73
     1
 44
1.0
1001
ACAD
1000
MTEXTBEGIN
1070
    73
1070
     1
1070
    44
1040
1.0
1070
    74
1070
     0
1000
MTEXTEND
  0
MTEXT
  5
202
330
D
100
AcDbEntity
  8
0
100
AcDbMText
 10
427.6735167562821
 20
-304.8510387715098
 30
0.0
 40
5.0
 41
0.0
 46
0.0
 71
     5
 72
     5
  1
элементов
  7
SPECBUD_TXT
 73
     1
 44
1.0
1001
ACAD
1000
MTEXTBEGIN
1070
    73
1070
     1
1070
    44
1040
1.0
1070
    74
1070
     0
1000
MTEXTEND
  0
MTEXT
  5
203
330
D
100
AcDbEntity
  8
0
100
AcDbMText
 10
461.3995576736074
 20
-304.8510387715098
 30
0.0
 40
5.0
 41
0.0
 46
0.0
 71
     5
 72
     5
  1
всего
  7
SPECBUD_TXT
 73
     1
 44
1.0
1001
ACAD
1000
MTEXTBEGIN
1070
    73
1070
     1
1070
    44
1040
1.0
1070
    74
1070
     0
1000
MTEXTEND
  0
MTEXT
  5
204
330
D
100
AcDbEntity
  8
0
100
AcDbMText
 10
491.0648332649969
 20
-304.8510387715098
 30
0.0
 40
5.0
 41
0.0
 46
0.0
 71
     5
 72
     5
  1
площадь
  7
SPECBUD_TXT
 73
     1
 44
1.0
1001
ACAD
1000
MTEXTBEGIN
1070
    73
1070
     1
1070
    44
1040
1.0
1070
    74
1070
     0
1000
MTEXTEND
  0
MTEXT
  5
205
330
D
100
AcDbEntity
  8
0
100
AcDbMText
 10
535.1275198918476
 20
-304.8510387715098
 30
0.0
 40
5.0
 41
0.0
 46
0.0
 71
     5
 72
     5
  1
Общая масса
  7
SPECBUD_TXT
 73
     1
 44
1.0
1001
ACAD
1000
MTEXTBEGIN
1070
    73
1070
     1
1070
    44
1040
1.0
1070
    74
1070
     0
1000
MTEXTEND
  0
MTEXT
  5
206
330
D
100
AcDbEntity
  8
0
100
AcDbMText
 10
52.82
 20
-315.8510387715098
 30
0.0
 40
5.0
 41
0.0
 46
0.0
 71
     5
 72
     5
  1
сетки
  7
SPECBUD_TXT
 73
     1
 44
1.0
1001
ACAD
1000
MTEXTBEGIN
1070
    73
1070
     1
1070
    44
1040
1.0
1070
    74
1070
     0
1000
MTEXTEND
  0
MTEXT
  5
207
330
D
100
AcDbEntity
  8
0
100
AcDbMText
 10
168.5976622112654
 20
-315.8510387715098
 30
0.0
 40
5.0
 41
0.0
 46
0.0
 71
     5
 72
     5
  1
%%CL / %%CB [мм]
  7
SPECBUD_TXT
 73
     1
 44
1.0
1001
ACAD
1000
MTEXTBEGIN
1070
    73
1070
     1
1070
    44
1040
1.0
1070
    74
1070
     0
1000
MTEXTEND
  0
MTEXT
  5
208
330
D
100
AcDbEntity
  8
0
100
AcDbMText
 10
226.319388187615
 20
-315.8510387715098
 30
0.0
 40
5.0
 41
0.0
 46
0.0
 71
     5
 72
     5
  1
PL x PB [мм]
  7
SPECBUD_TXT
 73
     1
 44
1.0
1001
ACAD
1000
MTEXTBEGIN
1070
    73
1070
     1
1070
    44
1040
1.0
1070
    74
1070
     0
1000
MTEXTEND
  0
MTEXT
  5
209
330
D
100
AcDbEntity
  8
0
100
AcDbMText
 10
282.9336961084348
 20
-315.8510387715098
 30
0.0
 40
5.0
 41
0.0
 46
0.0
 71
     5
 72
     5
  1
L x B [мм]
  7
SPECBUD_TXT
 73
     1
 44
1.0
1001
ACAD
1000
MTEXTBEGIN
1070
    73
1070
     1
1070
    44
1040
1.0
1070
    74
1070
     0
1000
MTEXTEND
  0
MTEXT
  5
20A
330
D
100
AcDbEntity
  8
0
100
AcDbMText
 10
337.7022142877919
 20
-315.8510387715098
 30
0.0
 40
5.0
 41
0.0
 46
0.0
 71
     5
 72
     5
  1
[кг]
  7
SPECBUD_TXT
 73
     1
 44
1.0
1001
ACAD
1000
MTEXTBEGIN
1070
    73
1070
     1
1070
    44
1040
1.0
1070
    74
1070
     0
1000
MTEXTEND
  0
MTEXT
  5
20B
330
D
100
AcDbEntity
  8
0
100
AcDbMText
 10
386.1948520835012
 20
-315.8510387715098
 30
0.0
 40
5.0
 41
0.0
 46
0.0
 71
     5
 72
     5
  1
1 элементе
  7
SPECBUD_TXT
 73
     1
 44
1.0
1001
ACAD
1000
MTEXTBEGIN
1070
    73
1070
     1
1070
    44
1040
1.0
1070
    74
1070
     0
1000
MTEXTEND
  0
MTEXT
  5
20C
330
D
100
AcDbEntity
  8
0
100
AcDbMText
 10
461.3995576736074
 20
-315.8510387715098
 30
0.0
 40
5.0
 41
0.0
 46
0.0
 71
     5
 72
     5
  1
сеток
  7
SPECBUD_TXT
 73
     1
 44
1.0
1001
ACAD
1000
MTEXTBEGIN
1070
    73
1070
     1
1070
    44
1040
1.0
1070
    74
1070
     0
1000
MTEXTEND
  0
MTEXT
  5
20D
330
D
100
AcDbEntity
  8
0
100
AcDbMText
 10
491.0648332649969
 20
-315.8510387715098
 30
0.0
 40
5.0
 41
0.0
 46
0.0
 71
     5
 72
     5
  1
[м²]
  7
SPECBUD_TXT
 73
     1
 44
1.0
1001
ACAD
1000
MTEXTBEGIN
1070
    73
1070
     1
1070
    44
1040
1.0
1070
    74
1070
     0
1000
MTEXTEND
  0
MTEXT
  5
20E
330
D
100
AcDbEntity
  8
0
100
AcDbMText
 10
535.1275198918476
 20
-315.8510387715098
 30
0.0
 40
5.0
 41
0.0
 46
0.0
 71
     5
 72
     5
  1
[кг]
  7
SPECBUD_TXT
 73
     1
 44
1.0
1001
ACAD
1000
MTEXTBEGIN
1070
    73
1070
     1
1070
    44
1040
1.0
1070
    74
1070
     0
1000
MTEXTEND
  0
MTEXT
  5
20F
330
D
100
AcDbEntity
  8
0
100
AcDbMText
 10
339.5836961084348
 20
-326.8510387715098
 30
0.0
 40
5.0
 41
0.0
 46
0.0
 71
     5
 72
     5
  1
Перекрытие - выполнить 4 шт.
  7
SPECBUD_TXT
 73
     1
 44
1.0
1001
ACAD
1000
MTEXTBEGIN
1070
    73
1070
     1
1070
    44
1040
1.0
1070
    74
1070
     0
1000
MTEXTEND
  0
MTEXT
  5
210
330
D
100
AcDbEntity
  8
0
100
AcDbMText
 10
8.149999999999993
 20
-337.8510387715098
 30
0.0
 40
5.0
 41
0.0
 46
0.0
 71
     5
 72
     5
  1
S-1
  7
SPECBUD_TXT
 73
     1
 44
1.0
1001
ACAD
1000
MTEXTBEGIN
1070
    73
1070
     1
1070
    44
1040
1.0
1070
    74
1070
     0
1000
MTEXTEND
  0
MTEXT
  5
211
330
D
100
AcDbEntity
  8
0
100
AcDbMText
 10
52.82
 20
-337.8510387715098
 30
0.0
 40
5.0
 41
0.0
 46
0.0
 71
     5
 72
     5
  1
S525
  7
SPECBUD_TXT
 73
     1
 44
1.0
1001
ACAD
1000
MTEXTBEGIN
1070
    73
1070
     1
1070
    44
1040
1.0
1070
    74
1070
     0
1000
MTEXTEND
  0
MTEXT
  5
212
330
D
100
AcDbEntity
  8
0
100
AcDbMText
 10
122.66
 20
-337.8510387715098
 30
0.0
 40
5.0
 41
0.0
 46
0.0
 71
     5
 72
     5
  1
B500SP
  7
SPECBUD_TXT
 73
     1
 44
1.0
1001
ACAD
1000
MTEXTBEGIN
1070
    73
1070
     1
1070
    44
1040
1.0
1070
    74
1070
     0
1000
MTEXTEND
  0
MTEXT
  5
213
330
D
100
AcDbEntity
  8
0
100
AcDbMText
 10
168.5976622112654
 20
-337.8510387715098
 30
0.0
 40
5.0
 41
0.0
 46
0.0
 71
     5
 72
     5
  1
10/10
  7
SPECBUD_TXT
 73
     1
 44
1.0
1001
ACAD
1000
MTEXTBEGIN
1070
    73
1070
     1
1070
    44
1040
1.0
1070
    74
1070
     0
1000
MTEXTEND
  0
MTEXT
  5
214
330
D
100
AcDbEntity
  8
0
100
AcDbMText
 10
226.319388187615
 20
-337.8510387715098
 30
0.0
 40
5.0
 41
0.0
 46
0.0
 71
     5
 72
     5
  1
150x150
  7
SPECBUD_TXT
 73
     1
 44
1.0
1001
ACAD
1000
MTEXTBEGIN
1070
    73
1070
     1
1070
    44
1040
1.0
1070
    74
1070
     0
1000
MTEXTEND
  0
MTEXT
  5
215
330
D
100
AcDbEntity
  8
0
100
AcDbMText
 10
282.9336961084348
 20
-337.8510387715098
 30
0.0
 40
5.0
 41
0.0
 46
0.0
 71
     5
 72
     5
  1
5000x2150
  7
SPECBUD_TXT
 73
     1
 44
1.0
1001
ACAD
1000
MTEXTBEGIN
1070
    73
1070
     1
1070
    44
1040
1.0
1070
    74
1070
     0
1000
MTEXTEND
  0
MTEXT
  5
216
330
D
100
AcDbEntity
  8
0
100
AcDbMText
 10
337.7022142877919
 20
-337.8510387715098
 30
0.0
 40
5.0
 41
0.0
 46
0.0
 71
     5
 72
     5
  1
90,10
  7
SPECBUD_TXT
 73
     1
 44
1.0
1001
ACAD
1000
MTEXTBEGIN
1070
    73
1070
     1
1070
    44
1040
1.0
1070
    74
1070
     0
1000
MTEXTEND
  0
MTEXT
  5
217
330
D
100
AcDbEntity
  8
0
100
AcDbMText
 10
386.1948520835012
 20
-337.8510387715098
 30
0.0
 40
5.0
 41
0.0
 46
0.0
 71
     5
 72
     5
  1
4
  7
SPECBUD_TXT
 73
     1
 44
1.0
1001
ACAD
1000
MTEXTBEGIN
1070
    73
1070
     1
1070
    44
1040
1.0
1070
    74
1070
     0
1000
MTEXTEND
  0
MTEXT
  5
218
330
D
100
AcDbEntity
  8
0
100
AcDbMText
 10
427.6735167562821
 20
-337.8510387715098
 30
0.0
 40
5.0
 41
0.0
 46
0.0
 71
     5
 72
     5
  1
4
  7
SPECBUD_TXT
 73
     1
 44
1.0
1001
ACAD
1000
MTEXTBEGIN
1070
    73
1070
     1
1070
    44
1040
1.0
1070
    74
1070
     0
1000
MTEXTEND
  0
MTEXT
  5
219
330
D
100
AcDbEntity
  8
0
100
AcDbMText
 10
461.3995576736074
 20
-337.8510387715098
 30
0.0
 40
5.0
 41
0.0
 46
0.0
 71
     5
 72
     5
  1
16
  7
SPECBUD_TXT
 73
     1
 44
1.0
1001
ACAD
1000
MTEXTBEGIN
1070
    73
1070
     1
1070
    44
1040
1.0
1070
    74
1070
     0
1000
MTEXTEND
  0
MTEXT
  5
21A
330
D
100
AcDbEntity
  8
0
100
AcDbMText
 10
491.0648332649969
 20
-337.8510387715098
 30
0.0
 40
5.0
 41
0.0
 46
0.0
 71
     5
 72
     5
  1
172,00
  7
SPECBUD_TXT
 73
     1
 44
1.0
1001
ACAD
1000
MTEXTBEGIN
1070
    73
1070
     1
1070
    44
1040
1.0
1070
    74
1070
     0
1000
MTEXTEND
  0
MTEXT
  5
21B
330
D
100
AcDbEntity
  8
0
100
AcDbMText
 10
535.1275198918476
 20
-337.8510387715098
 30
0.0
 40
5.0
 41
0.0
 46
0.0
 71
     5
 72
     5
  1
1441,60
  7
SPECBUD_TXT
 73
     1
 44
1.0
1001
ACAD
1000
MTEXTBEGIN
1070
    73
1070
     1
1070
    44
1040
1.0
1070
    74
1070
     0
1000
MTEXTEND
  0
MTEXT
  5
21C
330
D
100
AcDbEntity
  8
0
100
AcDbMText
 10
8.149999999999993
 20
-348.8510387715098
 30
0.0
 40
5.0
 41
0.0
 46
0.0
 71
     5
 72
     5
  1
S-2
  7
SPECBUD_TXT
 73
     1
 44
1.0
1001
ACAD
1000
MTEXTBEGIN
1070
    73
1070
     1
1070
    44
1040
1.0
1070
    74
1070
     0
1000
MTEXTEND
  0
MTEXT
  5
21D
330
D
100
AcDbEntity
  8
0
100
AcDbMText
 10
52.82
 20
-348.8510387715098
 30
0.0
 40
5.0
 41
0.0
 46
0.0
 71
     5
 72
     5
  1
S525_измененная
  7
SPECBUD_TXT
 73
     1
 44
1.0
1001
ACAD
1000
MTEXTBEGIN
1070
    73
1070
     1
1070
    44
1040
1.0
1070
    74
1070
     0
1000
MTEXTEND
  0
MTEXT
  5
21E
330
D
100
AcDbEntity
  8
0
100
AcDbMText
 10
122.66
 20
-348.8510387715098
 30
0.0
 40
5.0
 41
0.0
 46
0.0
 71
     5
 72
     5
  1
B500SP
  7
SPECBUD_TXT
 73
     1
 44
1.0
1001
ACAD
1000
MTEXTBEGIN
1070
    73
1070
     1
1070
    44
1040
1.0
1070
    74
1070
     0
1000
MTEXTEND
  0
MTEXT
  5
21F
330
D
100
AcDbEntity
  8
0
100
AcDbMText
 10
168.5976622112654
 20
-348.8510387715098
 30
0.0
 40
5.0
 41
0.0
 46
0.0
 71
     5
 72
     5
  1
10/10
  7
SPECBUD_TXT
 73
     1
 44
1.0
1001
ACAD
1000
MTEXTBEGIN
1070
    73
1070
     1
1070
    44
1040
1.0
1070
    74
1070
     0
1000
MTEXTEND
  0
MTEXT
  5
220
330
D
100
AcDbEntity
  8
0
100
AcDbMText
 10
226.319388187615
 20
-348.8510387715098
 30
0.0
 40
5.0
 41
0.0
 46
0.0
 71
     5
 72
     5
  1
150x150
  7
SPECBUD_TXT
 73
     1
 44
1.0
1001
ACAD
1000
MTEXTBEGIN
1070
    73
1070
     1
1070
    44
1040
1.0
1070
    74
1070
     0
1000
MTEXTEND
  0
MTEXT
  5
221
330
D
100
AcDbEntity
  8
0
100
AcDbMText
 10
282.9336961084348
 20
-348.8510387715098
 30
0.0
 40
5.0
 41
0.0
 46
0.0
 71
     5
 72
     5
  1
2500x2150
  7
SPECBUD_TXT
 73
     1
 44
1.0
1001
ACAD
1000
MTEXTBEGIN
1070
    73
1070
     1
1070
    44
1040
1.0
1070
    74
1070
     0
1000
MTEXTEND
  0
MTEXT
  5
222
330
D
100
AcDbEntity
  8
0
100
AcDbMText
 10
337.7022142877919
 20
-348.8510387715098
 30
0.0
 40
5.0
 41
0.0
 46
0.0
 71
     5
 72
     5
  1
45,05
  7
SPECBUD_TXT
 73
     1
 44
1.0
1001
ACAD
1000
MTEXTBEGIN
1070
    73
1070
     1
1070
    44
1040
1.0
1070
    74
1070
     0
1000
MTEXTEND
  0
MTEXT
  5
223
330
D
100
AcDbEntity
  8
0
100
AcDbMText
 10
386.1948520835012
 20
-348.8510387715098
 30
0.0
 40
5.0
 41
0.0
 46
0.0
 71
     5
 72
     5
  1
4
  7
SPECBUD_TXT
 73
     1
 44
1.0
1001
ACAD
1000
MTEXTBEGIN
1070
    73
1070
     1
1070
    44
1040
1.0
1070
    74
1070
     0
1000
MTEXTEND
  0
MTEXT
  5
224
330
D
100
AcDbEntity
  8
0
100
AcDbMText
 10
427.6735167562821
 20
-348.8510387715098
 30
0.0
 40
5.0
 41
0.0
 46
0.0
 71
     5
 72
     5
  1
4
  7
SPECBUD_TXT
 73
     1
 44
1.0
1001
ACAD
1000
MTEXTBEGIN
1070
    73
1070
     1
1070
    44
1040
1.0
1070
    74
1070
     0
1000
MTEXTEND
  0
MTEXT
  5
225
330
D
100
AcDbEntity
  8
0
100
AcDbMText
 10
461.3995576736074
 20
-348.8510387715098
 30
0.0
 40
5.0
 41
0.0
 46
0.0
 71
     5
 72
     5
  1
16
  7
SPECBUD_TXT
 73
     1
 44
1.0
1001
ACAD
1000
MTEXTBEGIN
1070
    73
1070
     1
1070
    44
1040
1.0
1070
    74
1070
     0
1000
MTEXTEND
  0
MTEXT
  5
226
330
D
100
AcDbEntity
  8
0
100
AcDbMText
 10
491.0648332649969
 20
-348.8510387715098
 30
0.0
 40
5.0
 41
0.0
 46
0.0
 71
     5
 72
     5
  1
86,00
  7
SPECBUD_TXT
 73
     1
 44
1.0
1001
ACAD
1000
MTEXTBEGIN
1070
    73
1070
     1
1070
    44
1040
1.0
1070
    74
1070
     0
1000
MTEXTEND
  0
MTEXT
  5
227
330
D
100
AcDbEntity
  8
0
100
AcDbMText
 10
535.1275198918476
 20
-348.8510387715098
 30
0.0
 40
5.0
 41
0.0
 46
0.0
 71
     5
 72
     5
  1
720,80
  7
SPECBUD_TXT
 73
     1
 44
1.0
1001
ACAD
1000
MTEXTBEGIN
1070
    73
1070
     1
1070
    44
1040
1.0
1070
    74
1070
     0
1000
MTEXTEND
  0
MTEXT
  5
228
330
D
100
AcDbEntity
  8
0
100
AcDbMText
 10
3.529999999999992
 20
-359.8510387715098
 30
0.0
 40
5.0
 41
0.0
 46
0.0
 71
     4
 72
     5
  1
Всего площадь
  7
SPECBUD_TXT
 73
     1
 44
1.0
1001
ACAD
1000
MTEXTBEGIN
1070
    73
1070
     1
1070
    44
1040
1.0
1070
    74
1070
     0
1000
MTEXTEND
  0
MTEXT
  5
229
330
D
100
AcDbEntity
  8
0
100
AcDbMText
 10
470.118034041921
 20
-359.8510387715098
 30
0.0
 40
5.0
 41
0.0
 46
0.0
 71
     6
 72
     5
  1
[м²]
  7
SPECBUD_TXT
 73
     1
 44
1.0
1001
ACAD
1000
MTEXTBEGIN
1070
    73
1070
     1
1070
    44
1040
1.0
1070
    74
1070
     0
1000
MTEXTEND
  0
MTEXT
  5
22A
330
D
100
AcDbEntity
  8
0
100
AcDbMText
 10
491.0648332649969
 20
-359.8510387715098
 30
0.0
 40
5.0
 41
0.0
 46
0.0
 71
     5
 72
     5
  1
258,00
  7
SPECBUD_TXT
 73
     1
 44
1.0
1001
ACAD
1000
MTEXTBEGIN
1070
    73
1070
     1
1070
    44
1040
1.0
1070
    74
1070
     0
1000
MTEXTEND
  0
MTEXT
  5
22B
330
D
100
AcDbEntity
  8
0
100
AcDbMText
 10
3.529999999999992
 20
-370.8510387715098
 30
0.0
 40
5.0
 41
0.0
 46
0.0
 71
     4
 72
     5
  1
Всего масса
  7
SPECBUD_TXT
 73
     1
 44
1.0
1001
ACAD
1000
MTEXTBEGIN
1070
    73
1070
     1
1070
    44
1040
1.0
1070
    74
1070
     0
1000
MTEXTEND
  0
MTEXT
  5
22C
330
D
100
AcDbEntity
  8
0
100
AcDbMText
 10
470.118034041921
 20
-370.8510387715098
 30
0.0
 40
5.0
 41
0.0
 46
0.0
 71
     6
 72
     5
  1
[кг]
  7
SPECBUD_TXT
 73
     1
 44
1.0
1001
ACAD
1000
MTEXTBEGIN
1070
    73
1070
     1
1070
    44
1040
1.0
1070
    74
1070
     0
1000
MTEXTEND
  0
MTEXT
  5
22D
330
D
100
AcDbEntity
  8
0
100
AcDbMText
 10
535.1275198918476
 20
-370.8510387715098
 30
0.0
 40
5.0
 41
0.0
 46
0.0
 71
     5
 72
     5
  1
2162,40
  7
SPECBUD_TXT
 73
     1
 44
1.0
1001
ACAD
1000
MTEXTBEGIN
1070
    73
1070
     1
1070
    44
1040
1.0
1070
    74
1070
     0
1000
MTEXTEND
  0
MTEXT
  5
22E
330
D
100
AcDbEntity
  8
0
100
AcDbMText
 10
-0.0000000000000072
 20
-281.9410387715098
 30
0.0
 40
5.0
 41
0.0
 46
0.0
 71
     4
 72
     5
  1
Спецификация сеток
  7
SPECBUD_TXT
 73
     1
 44
1.0
1001
ACAD
1000
MTEXTBEGIN
1070
    73
1070
     1
1070
    44
1040
1.0
1070
    74
1070
     0
1000
MTEXTEND
  0
MTEXT
  5
22F
330
D
100
AcDbEntity
  8
0
100
AcDbMText
 10
-0.0000000000000072
 20
-281.9410387715098
 30
0.0
 40
5.0
 41
0.0
 46
0.0
 71
     4
 72
     5
  1
Спецификация сеток
  7
SPECBUD_TXT
 73
     1
 44
1.0
1001
ACAD
1000
MTEXTBEGIN
1070
    73
1070
     1
1070
    44
1040
1.0
1070
    74
1070
     0
1000
MTEXTEND
  0
MTEXT
  5
230
330
D
100
AcDbEntity
  8
0
100
AcDbMText
 10
-0.0000000000000072
 20
-281.9410387715098
 30
0.0
 40
5.0
 41
0.0
 46
0.0
 71
     4
 72
     5
  1
Спецификация сеток
  7
SPECBUD_TXT
 73
     1
 44
1.0
1001
ACAD
1000
MTEXTBEGIN
1070
    73
1070
     1
1070
    44
1040
1.0
1070
    74
1070
     0
1000
MTEXTEND
  0
ENDSEC
  0
SECTION
  2
OBJECTS
  0
DICTIONARY
  5
13
330
0
100
AcDbDictionary
281
     1
  3
ACAD_CIP_PREVIOUS_PRODUCT_INFO
350
168
  3
ACAD_COLOR
350
145
  3
ACAD_DETAILVIEWSTYLE
350
15F
  3
ACAD_GROUP
350
14
  3
ACAD_LAYOUT
350
161
  3
ACAD_MATERIAL
350
113
  3
ACAD_MLEADERSTYLE
350
15B
  3
ACAD_MLINESTYLE
350
16
  3
ACAD_PLOTSETTINGS
350
17
  3
ACAD_PLOTSTYLENAME
350
18
  3
ACAD_SCALELIST
350
149
  3
ACAD_SECTIONVIEWSTYLE
350
15D
  3
ACAD_TABLESTYLE
350
146
  3
ACAD_VISUALSTYLE
350
12C
  3
AcDbVariableDictionary
350
254
  3
MCS_STREAM_DICT
350
169
  0
DICTIONARY
  5
24D
330
55
100
AcDbDictionary
280
     1
281
     1
  3
ADSK_XREC_LAYER_RECONCILED
360
24E
  0
XRECORD
  5
168
102
{ACAD_REACTORS
330
13
102
}
330
13
100
AcDbXrecord
280
     1
300
ACD
300
2017
300
ACD_F_S
  0
DICTIONARY
  5
145
102
{ACAD_REACTORS
330
13
102
}
330
13
100
AcDbDictionary
281
     1
  0
DICTIONARY
  5
15F
102
{ACAD_REACTORS
330
13
102
}
330
13
100
AcDbDictionary
281
     1
  3
Metric50
350
160
  0
DICTIONARY
  5
14
330
13
100
AcDbDictionary
281
     1
  0
DICTIONARY
  5
161
102
{ACAD_REACTORS
330
13
102
}
330
13
100
AcDbDictionary
281
     1
  3
Model
350
162
  3
Лист1
350
163
  0
DICTIONARY
  5
113
102
{ACAD_REACTORS
330
13
102
}
330
13
100
AcDbDictionary
281
     1
  3
ByBlock
350
11C
  3
ByLayer
350
114
  3
Global
350
124
  0
DICTIONARY
  5
15B
102
{ACAD_REACTORS
330
13
102
}
330
13
100
AcDbDictionary
281
     1
  3
Standard
350
15C
  0
DICTIONARY
  5
16
330
13
100
AcDbDictionary
281
     1
  3
Standard
350
148
  0
DICTIONARY
  5
17
102
{ACAD_REACTORS
330
13
102
}
330
13
100
AcDbDictionary
281
     1
  0
ACDBDICTIONARYWDFLT
  5
18
102
{ACAD_REACTORS
330
13
102
}
330
13
100
AcDbDictionary
281
     1
  3
Normal
350
19
100
AcDbDictionaryWithDefault
340
19
  0
DICTIONARY
  5
149
102
{ACAD_REACTORS
330
13
102
}
330
13
100
AcDbDictionary
281
     1
  3
A0
350
14A
  3
A1
350
14B
  3
A2
350
14C
  3
A3
350
14D
  3
A4
350
14E
  3
A5
350
14F
  3
A6
350
150
  3
A7
350
151
  3
A8
350
152
  3
A9
350
153
  3
B0
350
154
  3
B1
350
155
  3
B2
350
156
  3
B3
350
157
  3
B4
350
158
  3
B5
350
159
  3
B6
350
15A
  0
DICTIONARY
  5
15D
102
{ACAD_REACTORS
330
13
102
}
330
13
100
AcDbDictionary
281
     1
  3
Metric50
350
15E
  0
DICTIONARY
  5
146
102
{ACAD_REACTORS
330
13
102
}
330
13
100
AcDbDictionary
281
     1
  3
Standard
350
147
  0
DICTIONARY
  5
12C
102
{ACAD_REACTORS
330
13
102
}
330
13
100
AcDbDictionary
281
     1
  3
2dWireframe
350
132
  3
Basic
350
131
  3
Brighten
350
138
  3
ColorChange
350
13C
  3
Conceptual
350
135
  3
Dim
350
137
  3
EdgeColorOff
350
144
  3
Facepattern
350
13B
  3
Flat
350
12D
  3
FlatWithEdges
350
12E
  3
Gouraud
350
12F
  3
GouraudWithEdges
350
130
  3
Hidden
350
134
  3
JitterOff
350
142
  3
Linepattern
350
13A
  3
OverhangOff
350
143
  3
Realistic
350
136
  3
Shaded
350
141
  3
Shaded with edges
350
140
  3
Shades of Gray
350
13D
  3
Sketchy
350
13E
  3
Thicken
350
139
  3
Wireframe
350
133
  3
X-Ray
350
13F
  0
DICTIONARY
  5
254
102
{ACAD_REACTORS
330
13
102
}
330
13
100
AcDbDictionary
281
     1
  3
CANNOSCALE
350
25A
  3
CMLEADERSTYLE
350
256
  3
CTABLESTYLE
350
255
  3
CVIEWDETAILSTYLE
350
257
  3
CVIEWSECTIONSTYLE
350
258
  3
LAYEREVAL
350
25C
  3
LAYERNOTIFY
350
25D
  3
LIGHTINGUNITS
350
25B
  3
MSLTSCALE
350
259
  0
DICTIONARY
  5
169
102
{ACAD_REACTORS
330
13
102
}
330
13
100
AcDbDictionary
281
     1
  3
MC_VERSION_DATA
350
23C
  3
McDocData
350
23A
  3
MCS_DOCUMENT_ID
350
16A
  3
MCS_PARAMS_DATA
350
231
  0
XRECORD
  5
24E
102
{ACAD_REACTORS
330
24D
102
}
330
24D
100
AcDbXrecord
280
     1
290
     1
  0
ACDBDETAILVIEWSTYLE
  5
160
102
{ACAD_XDICTIONARY
360
251
102
}
102
{ACAD_REACTORS
330
15F
102
}
330
15F
100
AcDbModelDocViewStyle
 70
     0
  3
Metric50
290
     0
100
AcDbDetailViewStyle
 70
     0
 71
     0
 90
        3
 71
     1
340
6
 62
   256
 40
5.0
340
0
 62
   256
 40
5.0
300

 40
0.0
280
     1
 71
     2
340
0
 90
       25
 62
   256
 71
     3
340
6
 62
   256
 40
5.0
 90
        0
 40
15.0
 90
        1
300
%<\AcVar ViewDetailId>% (%<\AcVar ViewScale \f "%sn">%)
 71
     4
340
0
 90
       25
 62
   256
340
0
 90
       25
 62
   256
280
     0
  0
LAYOUT
  5
162
102
{ACAD_REACTORS
330
161
102
}
330
161
100
AcDbPlotSettings
  1

  2
Xerox Phaser 3117
  4

  6

 40
0.0
 41
0.0
 42
0.0
 43
0.0
 44
0.0
 45
0.0
 46
0.0
 47
0.0
 48
0.0
 49
0.0
140
0.0
141
0.0
142
1.0
143
1.0
 70
  1712
 72
     0
 73
     0
 74
     0
  7

 75
     0
 76
     0
 77
     2
 78
   300
147
1.0
148
0.0
149
0.0
100
AcDbLayout
  1
Model
 70
     1
 71
     0
 10
0.0
 20
0.0
 11
12.0
 21
9.0
 12
0.0
 22
0.0
 32
0.0
 14
0.0
 24
0.0
 34
0.0
 15
0.0
 25
0.0
 35
0.0
146
0.0
 13
0.0
 23
0.0
 33
0.0
 16
1.0
 26
0.0
 36
0.0
 17
0.0
 27
1.0
 37
0.0
 76
     0
330
D
331
57
  0
LAYOUT
  5
163
102
{ACAD_REACTORS
330
161
102
}
330
161
100
AcDbPlotSettings
  1

  2
Xerox Phaser 3117
  4

  6

 40
0.0
 41
0.0
 42
0.0
 43
0.0
 44
0.0
 45
0.0
 46
0.0
 47
0.0
 48
0.0
 49
0.0
140
0.0
141
0.0
142
1.0
143
1.0
 70
   688
 72
     0
 73
     0
 74
     5
  7

 75
    16
 76
     0
 77
     2
 78
   300
147
1.0
148
0.0
149
0.0
100
AcDbLayout
  1
Лист1
 70
     0
 71
     1
 10
0.0
 20
0.0
 11
12.0
 21
9.0
 12
0.0
 22
0.0
 32
0.0
 14
1.000000000000000E+20
 24
1.000000000000000E+20
 34
1.000000000000000E+20
 15
-1.000000000000000E+20
 25
-1.000000000000000E+20
 35
-1.000000000000000E+20
146
0.0
 13
0.0
 23
0.0
 33
0.0
 16
1.0
 26
0.0
 36
0.0
 17
0.0
 27
1.0
 37
0.0
 76
     0
330
E
  0
MATERIAL
  5
11C
102
{ACAD_REACTORS
330
113
102
}
330
113
100
AcDbMaterial
  1
ByBlock
 72
     0
 73
     2
 43
0.0208333333333333
 43
0.0
 43
0.0
 43
0.0
 43
0.0
 43
0.0208333333333333
 43
0.0
 43
0.0
 43
0.0
 43
0.0
 43
1.0
 43
0.0
 43
0.0
 43
0.0
 43
0.0
 43
1.0
 77
     0
 78
     2
 47
0.0208333333333333
 47
0.0
 47
0.0
 47
0.0
 47
0.0
 47
0.0208333333333333
 47
0.0
 47
0.0
 47
0.0
 47
0.0
 47
1.0
 47
0.0
 47
0.0
 47
0.0
 47
0.0
 47
1.0
171
     0
172
     2
 49
0.0208333333333333
 49
0.0
 49
0.0
 49
0.0
 49
0.0
 49
0.0208333333333333
 49
0.0
 49
0.0
 49
0.0
 49
0.0
 49
1.0
 49
0.0
 49
0.0
 49
0.0
 49
0.0
 49
1.0
175
     0
176
     2
142
0.0208333333333333
142
0.0
142
0.0
142
0.0
142
0.0
142
0.0208333333333333
142
0.0
142
0.0
142
0.0
142
0.0
142
1.0
142
0.0
142
0.0
142
0.0
142
0.0
142
1.0
179
     0
270
     2
144
0.0208333333333333
144
0.0
144
0.0
144
0.0
144
0.0
144
0.0208333333333333
144
0.0
144
0.0
144
0.0
144
0.0
144
1.0
144
0.0
144
0.0
144
0.0
144
0.0
144
1.0
274
     2
147
0.0208333333333333
147
0.0
147
0.0
147
0.0
147
0.0
147
0.0208333333333333
147
0.0
147
0.0
147
0.0
147
0.0
147
1.0
147
0.0
147
0.0
147
0.0
147
0.0
147
1.0
 94
      127
  0
MATERIAL
  5
114
102
{ACAD_REACTORS
330
113
102
}
330
113
100
AcDbMaterial
  1
ByLayer
 72
     0
 73
     2
 43
0.0208333333333333
 43
0.0
 43
0.0
 43
0.0
 43
0.0
 43
0.0208333333333333
 43
0.0
 43
0.0
 43
0.0
 43
0.0
 43
1.0
 43
0.0
 43
0.0
 43
0.0
 43
0.0
 43
1.0
 77
     0
 78
     2
 47
0.0208333333333333
 47
0.0
 47
0.0
 47
0.0
 47
0.0
 47
0.0208333333333333
 47
0.0
 47
0.0
 47
0.0
 47
0.0
 47
1.0
 47
0.0
 47
0.0
 47
0.0
 47
0.0
 47
1.0
171
     0
172
     2
 49
0.0208333333333333
 49
0.0
 49
0.0
 49
0.0
 49
0.0
 49
0.0208333333333333
 49
0.0
 49
0.0
 49
0.0
 49
0.0
 49
1.0
 49
0.0
 49
0.0
 49
0.0
 49
0.0
 49
1.0
175
     0
176
     2
142
0.0208333333333333
142
0.0
142
0.0
142
0.0
142
0.0
142
0.0208333333333333
142
0.0
142
0.0
142
0.0
142
0.0
142
1.0
142
0.0
142
0.0
142
0.0
142
0.0
142
1.0
179
     0
270
     2
144
0.0208333333333333
144
0.0
144
0.0
144
0.0
144
0.0
144
0.0208333333333333
144
0.0
144
0.0
144
0.0
144
0.0
144
1.0
144
0.0
144
0.0
144
0.0
144
0.0
144
1.0
274
     2
147
0.0208333333333333
147
0.0
147
0.0
147
0.0
147
0.0
147
0.0208333333333333
147
0.0
147
0.0
147
0.0
147
0.0
147
1.0
147
0.0
147
0.0
147
0.0
147
0.0
147
1.0
 94
      127
  0
MATERIAL
  5
124
102
{ACAD_REACTORS
330
113
102
}
330
113
100
AcDbMaterial
  1
Global
 72
     0
 73
     2
 43
0.0208333333333333
 43
0.0
 43
0.0
 43
0.0
 43
0.0
 43
0.0208333333333333
 43
0.0
 43
0.0
 43
0.0
 43
0.0
 43
1.0
 43
0.0
 43
0.0
 43
0.0
 43
0.0
 43
1.0
 77
     0
 78
     2
 47
0.0208333333333333
 47
0.0
 47
0.0
 47
0.0
 47
0.0
 47
0.0208333333333333
 47
0.0
 47
0.0
 47
0.0
 47
0.0
 47
1.0
 47
0.0
 47
0.0
 47
0.0
 47
0.0
 47
1.0
171
     0
172
     2
 49
0.0208333333333333
 49
0.0
 49
0.0
 49
0.0
 49
0.0
 49
0.0208333333333333
 49
0.0
 49
0.0
 49
0.0
 49
0.0
 49
1.0
 49
0.0
 49
0.0
 49
0.0
 49
0.0
 49
1.0
175
     0
176
     2
142
0.0208333333333333
142
0.0
142
0.0
142
0.0
142
0.0
142
0.0208333333333333
142
0.0
142
0.0
142
0.0
142
0.0
142
1.0
142
0.0
142
0.0
142
0.0
142
0.0
142
1.0
179
     0
270
     2
144
0.0208333333333333
144
0.0
144
0.0
144
0.0
144
0.0
144
0.0208333333333333
144
0.0
144
0.0
144
0.0
144
0.0
144
1.0
144
0.0
144
0.0
144
0.0
144
0.0
144
1.0
274
     2
147
0.0208333333333333
147
0.0
147
0.0
147
0.0
147
0.0
147
0.0208333333333333
147
0.0
147
0.0
147
0.0
147
0.0
147
1.0
147
0.0
147
0.0
147
0.0
147
0.0
147
1.0
 94
      127
  0
MLEADERSTYLE
  5
15C
102
{ACAD_REACTORS
330
15B
102
}
330
15B
100
AcDbMLeaderStyle
179
     2
170
     2
171
     1
172
     0
 90
        2
 40
0.0
 41
0.0
173
     1
 91
-1056964608
340
3
 92
       -2
290
     1
 42
2.0
291
     1
 43
0.36
  3
Standard
 44
4.0
300

342
6
174
     1
178
     6
175
     1
176
     0
 93
-1056964608
 45
4.0
292
     0
297
     0
 46
4.0
 94
-1056964608
 47
1.0
 49
1.0
140
1.0
293
     1
141
0.0
294
     1
177
     0
142
1.0
295
     0
296
     0
143
0.125
271
     0
272
     9
273
     9
  0
MLINESTYLE
  5
148
102
{ACAD_REACTORS
330
16
102
}
330
16
100
AcDbMlineStyle
  2
STANDARD
 70
     0
  3

 62
   256
 51
90.0
 52
90.0
 71
     2
 49
0.5
 62
   256
  6
BYLAYER
 49
-0.5
 62
   256
  6
BYLAYER
  0
ACDBPLACEHOLDER
  5
19
102
{ACAD_REACTORS
330
18
102
}
330
18
  0
SCALE
  5
14A
102
{ACAD_REACTORS
330
149
102
}
330
149
100
AcDbScale
 70
     0
300
1:1
140
1.0
141
1.0
290
     1
  0
SCALE
  5
14B
102
{ACAD_REACTORS
330
149
102
}
330
149
100
AcDbScale
 70
     0
300
1:2
140
1.0
141
2.0
290
     0
  0
SCALE
  5
14C
102
{ACAD_REACTORS
330
149
102
}
330
149
100
AcDbScale
 70
     0
300
1:4
140
1.0
141
4.0
290
     0
  0
SCALE
  5
14D
102
{ACAD_REACTORS
330
149
102
}
330
149
100
AcDbScale
 70
     0
300
1:5
140
1.0
141
5.0
290
     0
  0
SCALE
  5
14E
102
{ACAD_REACTORS
330
149
102
}
330
149
100
AcDbScale
 70
     0
300
1:8
140
1.0
141
8.0
290
     0
  0
SCALE
  5
14F
102
{ACAD_REACTORS
330
149
102
}
330
149
100
AcDbScale
 70
     0
300
1:10
140
1.0
141
10.0
290
     0
  0
SCALE
  5
150
102
{ACAD_REACTORS
330
149
102
}
330
149
100
AcDbScale
 70
     0
300
1:16
140
1.0
141
16.0
290
     0
  0
SCALE
  5
151
102
{ACAD_REACTORS
330
149
102
}
330
149
100
AcDbScale
 70
     0
300
1:20
140
1.0
141
20.0
290
     0
  0
SCALE
  5
152
102
{ACAD_REACTORS
330
149
102
}
330
149
100
AcDbScale
 70
     0
300
1:30
140
1.0
141
30.0
290
     0
  0
SCALE
  5
153
102
{ACAD_REACTORS
330
149
102
}
330
149
100
AcDbScale
 70
     0
300
1:40
140
1.0
141
40.0
290
     0
  0
SCALE
  5
154
102
{ACAD_REACTORS
330
149
102
}
330
149
100
AcDbScale
 70
     0
300
1:50
140
1.0
141
50.0
290
     0
  0
SCALE
  5
155
102
{ACAD_REACTORS
330
149
102
}
330
149
100
AcDbScale
 70
     0
300
1:100
140
1.0
141
100.0
290
     0
  0
SCALE
  5
156
102
{ACAD_REACTORS
330
149
102
}
330
149
100
AcDbScale
 70
     0
300
2:1
140
2.0
141
1.0
290
     0
  0
SCALE
  5
157
102
{ACAD_REACTORS
330
149
102
}
330
149
100
AcDbScale
 70
     0
300
4:1
140
4.0
141
1.0
290
     0
  0
SCALE
  5
158
102
{ACAD_REACTORS
330
149
102
}
330
149
100
AcDbScale
 70
     0
300
8:1
140
8.0
141
1.0
290
     0
  0
SCALE
  5
159
102
{ACAD_REACTORS
330
149
102
}
330
149
100
AcDbScale
 70
     0
300
10:1
140
10.0
141
1.0
290
     0
  0
SCALE
  5
15A
102
{ACAD_REACTORS
330
149
102
}
330
149
100
AcDbScale
 70
     0
300
100:1
140
100.0
141
1.0
290
     0
  0
ACDBSECTIONVIEWSTYLE
  5
15E
102
{ACAD_XDICTIONARY
360
24F
102
}
102
{ACAD_REACTORS
330
15D
102
}
330
15D
100
AcDbModelDocViewStyle
 70
     0
  3
Metric50
290
     0
100
AcDbSectionViewStyle
 70
     0
 71
     0
 90
      102
 71
     1
340
6
 62
   256
 40
5.0
340
0
340
0
 62
   256
 40
5.0
300
I, O, Q, S, X, Z
 40
10.0
 90
        0
 40
2.5
 90
        0
 71
     2
340
0
 90
       25
 62
   256
340
0
 90
       50
 62
   256
 40
5.0
 40
2.5
 40
5.0
 71
     3
340
6
 62
   256
 40
5.0
 90
        0
 40
15.0
 90
        1
300
%<\AcVar ViewSectionStartId>%-%<\AcVar ViewSectionEndId>% (%<\AcVar ViewScale \f "%sn">%)
 71
     4
 62
   256
 62
   257
300
ANSI31
 40
1.0
 90
        0
290
     0
290
     0
 90
        6
 40
0.0
 40
1.570796326794896
 40
0.2617993877991494
 40
1.308996938995747
 40
-0.2617993877991494
 40
1.832595714594046
  0
TABLESTYLE
  5
147
102
{ACAD_REACTORS
330
146
102
}
330
146
100
AcDbTableStyle
  3
Standard
 70
     0
 71
     0
 40
1.5
 41
1.5
280
     0
281
     0
  7
STANDARD
140
4.5
170
     2
 62
     0
 63
     7
283
     0
 90
      512
 91
        0
  1

274
    -2
284
     1
 64
     0
275
    -2
285
     1
 65
     0
276
    -2
286
     1
 66
     0
277
    -2
287
     1
 67
     0
278
    -2
288
     1
 68
     0
279
    -2
289
     1
 69
     0
  7
STANDARD
140
6.0
170
     5
 62
     0
 63
     7
283
     0
 90
      512
 91
        0
  1

274
    -2
284
     1
 64
     0
275
    -2
285
     1
 65
     0
276
    -2
286
     1
 66
     0
277
    -2
287
     1
 67
     0
278
    -2
288
     1
 68
     0
279
    -2
289
     1
 69
     0
  7
STANDARD
140
4.5
170
     5
 62
     0
 63
     7
283
     0
 90
      512
 91
        0
  1

274
    -2
284
     1
 64
     0
275
    -2
285
     1
 65
     0
276
    -2
286
     1
 66
     0
277
    -2
287
     1
 67
     0
278
    -2
288
     1
 68
     0
279
    -2
289
     1
 69
     0
  0
VISUALSTYLE
  5
132
102
{ACAD_XDICTIONARY
360
25F
102
}
102
{ACAD_REACTORS
330
12C
102
}
330
12C
100
AcDbVisualStyle
  2
2dWireframe
 70
     4
177
     2
291
     0
 71
     0
176
     1
 72
     2
176
     1
 73
     0
176
     1
 90
        0
176
     1
 40
0.6
176
     1
 41
30.0
176
     1
 62
     5
 63
     7
421
 16777215
176
     1
 74
     1
176
     1
 91
        4
176
     1
 64
     7
176
     1
 65
   257
176
     1
 75
     1
176
     1
175
     1
176
     1
 42
1.0
176
     1
 92
        0
176
     1
 66
   257
176
     1
 43
1.0
176
     1
 76
     1
176
     1
 77
     6
176
     1
 78
     2
176
     1
 67
     7
176
     1
 79
     5
176
     1
170
     0
176
     1
171
     0
176
     1
290
     0
176
     1
 93
        1
176
     1
 44
0.0
176
     1
173
     0
176
     1
  0
VISUALSTYLE
  5
131
102
{ACAD_XDICTIONARY
360
261
102
}
102
{ACAD_REACTORS
330
12C
102
}
330
12C
100
AcDbVisualStyle
  2
Basic
 70
     7
177
     2
291
     1
 71
     1
176
     1
 72
     0
176
     1
 73
     1
176
     1
 90
        0
176
     1
 40
0.6
176
     1
 41
30.0
176
     1
 62
     5
 63
     7
421
 16777215
176
     1
 74
     0
176
     1
 91
        4
176
     1
 64
     7
176
     1
 65
   257
176
     1
 75
     1
176
     1
175
     1
176
     1
 42
1.0
176
     1
 92
        8
176
     1
 66
     7
176
     1
 43
1.0
176
     1
 76
     1
176
     1
 77
     6
176
     1
 78
     2
176
     1
 67
     7
176
     1
 79
     5
176
     1
170
     0
176
     1
171
     0
176
     1
290
     0
176
     1
 93
        1
176
     1
 44
0.0
176
     1
173
     0
176
     1
  0
VISUALSTYLE
  5
138
102
{ACAD_XDICTIONARY
360
263
102
}
102
{ACAD_REACTORS
330
12C
102
}
330
12C
100
AcDbVisualStyle
  2
Brighten
 70
    12
177
     2
291
     1
 71
     2
176
     1
 72
     2
176
     1
 73
     0
176
     1
 90
        0
176
     1
 40
0.6
176
     1
 41
30.0
176
     1
 62
     5
 63
     7
421
 16777215
176
     1
 74
     1
176
     1
 91
        4
176
     1
 64
     7
176
     1
 65
   257
176
     1
 75
     1
176
     1
175
     1
176
     1
 42
1.0
176
     1
 92
        8
176
     1
 66
     7
176
     1
 43
1.0
176
     1
 76
     1
176
     1
 77
     6
176
     1
 78
     2
176
     1
 67
     7
176
     1
 79
     5
176
     1
170
     0
176
     1
171
     0
176
     1
290
     0
176
     1
 93
        1
176
     1
 44
50.0
176
     1
173
     0
176
     1
  0
VISUALSTYLE
  5
13C
102
{ACAD_XDICTIONARY
360
265
102
}
102
{ACAD_REACTORS
330
12C
102
}
330
12C
100
AcDbVisualStyle
  2
ColorChange
 70
    16
177
     2
291
     1
 71
     2
176
     1
 72
     2
176
     1
 73
     3
176
     1
 90
        0
176
     1
 40
0.6
176
     1
 41
30.0
176
     1
 62
     5
 63
     8
421
  8421504
176
     1
 74
     1
176
     1
 91
        4
176
     1
 64
     7
176
     1
 65
   257
176
     1
 75
     1
176
     1
175
     1
176
     1
 42
1.0
176
     1
 92
        8
176
     1
 66
     8
424
  8421504
176
     1
 43
1.0
176
     1
 76
     1
176
     1
 77
     6
176
     1
 78
     2
176
     1
 67
     7
176
     1
 79
     5
176
     1
170
     0
176
     1
171
     0
176
     1
290
     0
176
     1
 93
        1
176
     1
 44
0.0
176
     1
173
     0
176
     1
  0
VISUALSTYLE
  5
135
102
{ACAD_XDICTIONARY
360
267
102
}
102
{ACAD_REACTORS
330
12C
102
}
330
12C
100
AcDbVisualStyle
  2
Conceptual
 70
     9
177
     2
291
     0
 71
     3
176
     1
 72
     2
176
     1
 73
     0
176
     1
 90
        0
176
     1
 40
0.6
176
     1
 41
30.0
176
     1
 62
     5
 63
     7
421
 16777215
176
     1
 74
     2
176
     1
 91
        2
176
     1
 64
     7
176
     1
 65
   257
176
     1
 75
     1
176
     1
175
     1
176
     1
 42
179.0
176
     1
 92
        8
176
     1
 66
     7
176
     1
 43
1.0
176
     1
 76
     1
176
     1
 77
     6
176
     1
 78
     2
176
     1
 67
     7
176
     1
 79
     3
176
     1
170
     0
176
     1
171
     0
176
     1
290
     0
176
     1
 93
        1
176
     1
 44
0.0
176
     1
173
     0
176
     1
  0
VISUALSTYLE
  5
137
102
{ACAD_XDICTIONARY
360
269
102
}
102
{ACAD_REACTORS
330
12C
102
}
330
12C
100
AcDbVisualStyle
  2
Dim
 70
    11
177
     2
291
     1
 71
     2
176
     1
 72
     2
176
     1
 73
     0
176
     1
 90
        0
176
     1
 40
0.6
176
     1
 41
30.0
176
     1
 62
     5
 63
     7
421
 16777215
176
     1
 74
     1
176
     1
 91
        4
176
     1
 64
     7
176
     1
 65
   257
176
     1
 75
     1
176
     1
175
     1
176
     1
 42
1.0
176
     1
 92
        8
176
     1
 66
     7
176
     1
 43
1.0
176
     1
 76
     1
176
     1
 77
     6
176
     1
 78
     2
176
     1
 67
     7
176
     1
 79
     5
176
     1
170
     0
176
     1
171
     0
176
     1
290
     0
176
     1
 93
        1
176
     1
 44
-50.0
176
     1
173
     0
176
     1
  0
VISUALSTYLE
  5
144
102
{ACAD_XDICTIONARY
360
26B
102
}
102
{ACAD_REACTORS
330
12C
102
}
330
12C
100
AcDbVisualStyle
  2
EdgeColorOff
 70
    22
177
     2
291
     1
 71
     2
176
     0
 72
     2
176
     0
 73
     0
176
     0
 90
        0
176
     0
 40
0.6
176
     0
 41
30.0
176
     0
 62
     5
 63
     7
421
 16777215
176
     0
 74
     1
176
     0
 91
        4
176
     0
 64
     7
176
     0
 65
   257
176
     0
 75
     1
176
     0
175
     1
176
     0
 42
1.0
176
     0
 92
        8
176
     2
 66
     7
176
     0
 43
1.0
176
     0
 76
     1
176
     0
 77
     6
176
     0
 78
     2
176
     0
 67
     7
176
     0
 79
     5
176
     0
170
     0
176
     0
171
     0
176
     0
290
     0
176
     0
 93
        1
176
     0
 44
0.0
176
     0
173
     0
176
     0
  0
VISUALSTYLE
  5
13B
102
{ACAD_XDICTIONARY
360
26D
102
}
102
{ACAD_REACTORS
330
12C
102
}
330
12C
100
AcDbVisualStyle
  2
Facepattern
 70
    15
177
     2
291
     1
 71
     2
176
     1
 72
     2
176
     1
 73
     0
176
     1
 90
        0
176
     1
 40
0.6
176
     1
 41
30.0
176
     1
 62
     5
 63
     7
421
 16777215
176
     1
 74
     1
176
     1
 91
        4
176
     1
 64
     7
176
     1
 65
   257
176
     1
 75
     1
176
     1
175
     1
176
     1
 42
1.0
176
     1
 92
        8
176
     1
 66
     7
176
     1
 43
1.0
176
     1
 76
     1
176
     1
 77
     6
176
     1
 78
     2
176
     1
 67
     7
176
     1
 79
     5
176
     1
170
     0
176
     1
171
     0
176
     1
290
     0
176
     1
 93
        1
176
     1
 44
0.0
176
     1
173
     0
176
     1
  0
VISUALSTYLE
  5
12D
102
{ACAD_XDICTIONARY
360
26F
102
}
102
{ACAD_REACTORS
330
12C
102
}
330
12C
100
AcDbVisualStyle
  2
Flat
 70
     0
177
     2
291
     1
 71
     2
176
     1
 72
     1
176
     1
 73
     1
176
     1
 90
        2
176
     1
 40
0.6
176
     1
 41
30.0
176
     1
 62
     5
 63
     7
421
 16777215
176
     1
 74
     0
176
     1
 91
        0
176
     1
 64
     7
176
     1
 65
   257
176
     1
 75
     1
176
     1
175
     1
176
     1
 42
1.0
176
     1
 92
        8
176
     1
 66
     7
176
     1
 43
1.0
176
     1
 76
     1
176
     1
 77
     6
176
     1
 78
     2
176
     1
 67
     7
176
     1
 79
     5
176
     1
170
     0
176
     1
171
     0
176
     1
290
     0
176
     1
 93
       13
176
     1
 44
0.0
176
     1
173
     0
176
     1
  0
VISUALSTYLE
  5
12E
102
{ACAD_XDICTIONARY
360
271
102
}
102
{ACAD_REACTORS
330
12C
102
}
330
12C
100
AcDbVisualStyle
  2
FlatWithEdges
 70
     1
177
     2
291
     1
 71
     2
176
     1
 72
     1
176
     1
 73
     1
176
     1
 90
        2
176
     1
 40
0.6
176
     1
 41
30.0
176
     1
 62
     5
 63
     7
421
 16777215
176
     1
 74
     1
176
     1
 91
        0
176
     1
 64
     7
176
     1
 65
   257
176
     1
 75
     1
176
     1
175
     1
176
     1
 42
1.0
176
     1
 92
        0
176
     1
 66
   257
176
     1
 43
1.0
176
     1
 76
     1
176
     1
 77
     6
176
     1
 78
     2
176
     1
 67
     7
176
     1
 79
     5
176
     1
170
     0
176
     1
171
     0
176
     1
290
     0
176
     1
 93
       13
176
     1
 44
0.0
176
     1
173
     0
176
     1
  0
VISUALSTYLE
  5
12F
102
{ACAD_XDICTIONARY
360
273
102
}
102
{ACAD_REACTORS
330
12C
102
}
330
12C
100
AcDbVisualStyle
  2
Gouraud
 70
     2
177
     2
291
     1
 71
     2
176
     1
 72
     2
176
     1
 73
     1
176
     1
 90
        2
176
     1
 40
0.6
176
     1
 41
30.0
176
     1
 62
     5
 63
     7
421
 16777215
176
     1
 74
     0
176
     1
 91
        0
176
     1
 64
     7
176
     1
 65
   257
176
     1
 75
     1
176
     1
175
     1
176
     1
 42
1.0
176
     1
 92
        0
176
     1
 66
     7
176
     1
 43
1.0
176
     1
 76
     1
176
     1
 77
     6
176
     1
 78
     2
176
     1
 67
     7
176
     1
 79
     5
176
     1
170
     0
176
     1
171
     0
176
     1
290
     0
176
     1
 93
       13
176
     1
 44
0.0
176
     1
173
     0
176
     1
  0
VISUALSTYLE
  5
130
102
{ACAD_XDICTIONARY
360
275
102
}
102
{ACAD_REACTORS
330
12C
102
}
330
12C
100
AcDbVisualStyle
  2
GouraudWithEdges
 70
     3
177
     2
291
     1
 71
     2
176
     1
 72
     2
176
     1
 73
     1
176
     1
 90
        2
176
     1
 40
0.6
176
     1
 41
30.0
176
     1
 62
     5
 63
     7
421
 16777215
176
     1
 74
     1
176
     1
 91
        0
176
     1
 64
     7
176
     1
 65
   257
176
     1
 75
     1
176
     1
175
     1
176
     1
 42
1.0
176
     1
 92
        0
176
     1
 66
   257
176
     1
 43
1.0
176
     1
 76
     1
176
     1
 77
     6
176
     1
 78
     2
176
     1
 67
     7
176
     1
 79
     5
176
     1
170
     0
176
     1
171
     0
176
     1
290
     0
176
     1
 93
       13
176
     1
 44
0.0
176
     1
173
     0
176
     1
  0
VISUALSTYLE
  5
134
102
{ACAD_XDICTIONARY
360
277
102
}
102
{ACAD_REACTORS
330
12C
102
}
330
12C
100
AcDbVisualStyle
  2
Hidden
 70
     6
177
     2
291
     0
 71
     1
176
     1
 72
     2
176
     1
 73
     2
176
     1
 90
        0
176
     1
 40
0.6
176
     1
 41
30.0
176
     1
 62
     5
 63
     7
421
 16777215
176
     1
 74
     2
176
     1
 91
        2
176
     1
 64
     7
176
     1
 65
   257
176
     1
 75
     2
176
     1
175
     1
176
     1
 42
40.0
176
     1
 92
        0
176
     1
 66
   257
176
     1
 43
1.0
176
     1
 76
     1
176
     1
 77
     6
176
     1
 78
     2
176
     1
 67
     7
176
     1
 79
     3
176
     1
170
     0
176
     1
171
     0
176
     1
290
     0
176
     1
 93
        1
176
     1
 44
0.0
176
     1
173
     0
176
     1
  0
VISUALSTYLE
  5
142
102
{ACAD_XDICTIONARY
360
279
102
}
102
{ACAD_REACTORS
330
12C
102
}
330
12C
100
AcDbVisualStyle
  2
JitterOff
 70
    20
177
     2
291
     1
 71
     2
176
     0
 72
     2
176
     0
 73
     0
176
     0
 90
        0
176
     0
 40
0.6
176
     0
 41
30.0
176
     0
 62
     5
 63
     7
421
 16777215
176
     0
 74
     1
176
     0
 91
        4
176
     0
 64
     7
176
     0
 65
   257
176
     0
 75
     1
176
     0
175
     1
176
     0
 42
1.0
176
     0
 92
       10
176
     2
 66
     7
176
     0
 43
1.0
176
     0
 76
     1
176
     0
 77
     6
176
     0
 78
     2
176
     0
 67
     7
176
     0
 79
     5
176
     0
170
     0
176
     0
171
     0
176
     0
290
     0
176
     0
 93
        1
176
     0
 44
0.0
176
     0
173
     0
176
     0
  0
VISUALSTYLE
  5
13A
102
{ACAD_XDICTIONARY
360
27B
102
}
102
{ACAD_REACTORS
330
12C
102
}
330
12C
100
AcDbVisualStyle
  2
Linepattern
 70
    14
177
     2
291
     1
 71
     2
176
     1
 72
     2
176
     1
 73
     0
176
     1
 90
        0
176
     1
 40
0.6
176
     1
 41
30.0
176
     1
 62
     5
 63
     7
421
 16777215
176
     1
 74
     1
176
     1
 91
        4
176
     1
 64
     7
176
     1
 65
   257
176
     1
 75
     7
176
     1
175
     7
176
     1
 42
1.0
176
     1
 92
        8
176
     1
 66
     7
176
     1
 43
1.0
176
     1
 76
     1
176
     1
 77
     6
176
     1
 78
     2
176
     1
 67
     7
176
     1
 79
     5
176
     1
170
     0
176
     1
171
     0
176
     1
290
     0
176
     1
 93
        1
176
     1
 44
0.0
176
     1
173
     0
176
     1
  0
VISUALSTYLE
  5
143
102
{ACAD_XDICTIONARY
360
27D
102
}
102
{ACAD_REACTORS
330
12C
102
}
330
12C
100
AcDbVisualStyle
  2
OverhangOff
 70
    21
177
     2
291
     1
 71
     2
176
     0
 72
     2
176
     0
 73
     0
176
     0
 90
        0
176
     0
 40
0.6
176
     0
 41
30.0
176
     0
 62
     5
 63
     7
421
 16777215
176
     0
 74
     1
176
     0
 91
        4
176
     0
 64
     7
176
     0
 65
   257
176
     0
 75
     1
176
     0
175
     1
176
     0
 42
1.0
176
     0
 92
        9
176
     2
 66
     7
176
     0
 43
1.0
176
     0
 76
     1
176
     0
 77
     6
176
     0
 78
     2
176
     0
 67
     7
176
     0
 79
     5
176
     0
170
     0
176
     0
171
     0
176
     0
290
     0
176
     0
 93
        1
176
     0
 44
0.0
176
     0
173
     0
176
     0
  0
VISUALSTYLE
  5
136
102
{ACAD_XDICTIONARY
360
27F
102
}
102
{ACAD_REACTORS
330
12C
102
}
330
12C
100
AcDbVisualStyle
  2
Realistic
 70
     8
177
     2
291
     0
 71
     2
176
     1
 72
     3
176
     1
 73
     0
176
     1
 90
        2
176
     1
 40
0.6
176
     1
 41
30.0
176
     1
 62
     5
 63
     7
421
 16777215
176
     1
 74
     0
176
     1
 91
        0
176
     1
 64
     7
176
     1
 65
   257
176
     1
 75
     1
176
     1
175
     1
176
     1
 42
1.0
176
     1
 92
        8
176
     1
 66
   257
176
     1
 43
1.0
176
     1
 76
     1
176
     1
 77
     6
176
     1
 78
     2
176
     1
 67
     7
176
     1
 79
     3
176
     1
170
     0
176
     1
171
     0
176
     1
290
     0
176
     1
 93
       13
176
     1
 44
0.0
176
     1
173
     0
176
     1
  0
VISUALSTYLE
  5
141
102
{ACAD_XDICTIONARY
360
281
102
}
102
{ACAD_REACTORS
330
12C
102
}
330
12C
100
AcDbVisualStyle
  2
Shaded
 70
    27
177
     2
291
     0
 71
     2
176
     1
 72
     2
176
     1
 73
     1
176
     1
 90
        2
176
     1
 40
0.6
176
     1
 41
30.0
176
     1
 62
     5
 63
     7
421
 16777215
176
     1
 74
     0
176
     1
 91
        4
176
     1
 64
     7
176
     1
 65
   257
176
     1
 75
     1
176
     1
175
     1
176
     1
 42
1.0
176
     1
 92
        8
176
     1
 66
   257
176
     1
 43
1.0
176
     1
 76
     1
176
     1
 77
     6
176
     1
 78
     2
176
     1
 67
     8
425
  7895160
176
     1
 79
     3
176
     1
170
     0
176
     1
171
     0
176
     1
290
     0
176
     1
 93
        5
176
     1
 44
0.0
176
     1
173
     0
176
     1
  0
VISUALSTYLE
  5
140
102
{ACAD_XDICTIONARY
360
283
102
}
102
{ACAD_REACTORS
330
12C
102
}
330
12C
100
AcDbVisualStyle
  2
Shaded with edges
 70
    26
177
     2
291
     0
 71
     2
176
     1
 72
     2
176
     1
 73
     1
176
     1
 90
        2
176
     1
 40
0.6
176
     1
 41
30.0
176
     1
 62
     5
 63
     7
421
 16777215
176
     1
 74
     1
176
     1
 91
        2
176
     1
 64
     7
176
     1
 65
   257
176
     1
 75
     2
176
     1
175
     1
176
     1
 42
1.0
176
     1
 92
        8
176
     1
 66
   257
176
     1
 43
1.0
176
     1
 76
     1
176
     1
 77
     6
176
     1
 78
     2
176
     1
 67
     7
176
     1
 79
     3
176
     1
170
     0
176
     1
171
     0
176
     1
290
     0
176
     1
 93
        5
176
     1
 44
0.0
176
     1
173
     0
176
     1
  0
VISUALSTYLE
  5
13D
102
{ACAD_XDICTIONARY
360
285
102
}
102
{ACAD_REACTORS
330
12C
102
}
330
12C
100
AcDbVisualStyle
  2
Shades of Gray
 70
    23
177
     2
291
     0
 71
     2
176
     1
 72
     2
176
     1
 73
     3
176
     1
 90
        0
176
     1
 40
0.6
176
     1
 41
30.0
176
     1
 62
     5
 63
     7
421
 16777215
176
     1
 74
     2
176
     1
 91
        2
176
     1
 64
     7
176
     1
 65
     7
176
     1
 75
     1
176
     1
175
     1
176
     1
 42
40.0
176
     1
 92
        8
176
     1
 66
     7
176
     1
 43
1.0
176
     1
 76
     1
176
     1
 77
     6
176
     1
 78
     2
176
     1
 67
     7
176
     1
 79
     3
176
     1
170
     0
176
     1
171
     0
176
     1
290
     0
176
     1
 93
        1
176
     1
 44
0.0
176
     1
173
     0
176
     1
  0
VISUALSTYLE
  5
13E
102
{ACAD_XDICTIONARY
360
287
102
}
102
{ACAD_REACTORS
330
12C
102
}
330
12C
100
AcDbVisualStyle
  2
Sketchy
 70
    24
177
     2
291
     0
 71
     1
176
     1
 72
     2
176
     1
 73
     2
176
     1
 90
        0
176
     1
 40
0.6
176
     1
 41
30.0
176
     1
 62
     5
 63
     7
421
 16777215
176
     1
 74
     2
176
     1
 91
        2
176
     1
 64
     7
176
     1
 65
     7
176
     1
 75
     1
176
     1
175
     1
176
     1
 42
40.0
176
     1
 92
       11
176
     1
 66
     7
176
     1
 43
1.0
176
     1
 76
     1
176
     1
 77
     6
176
     1
 78
     2
176
     1
 67
     7
176
     1
 79
     6
176
     1
170
     0
176
     1
171
     0
176
     1
290
     0
176
     1
 93
        1
176
     1
 44
0.0
176
     1
173
     0
176
     1
  0
VISUALSTYLE
  5
139
102
{ACAD_XDICTIONARY
360
289
102
}
102
{ACAD_REACTORS
330
12C
102
}
330
12C
100
AcDbVisualStyle
  2
Thicken
 70
    13
177
     2
291
     1
 71
     2
176
     1
 72
     2
176
     1
 73
     0
176
     1
 90
        0
176
     1
 40
0.6
176
     1
 41
30.0
176
     1
 62
     5
 63
     7
421
 16777215
176
     1
 74
     1
176
     1
 91
        4
176
     1
 64
     7
176
     1
 65
   257
176
     1
 75
     1
176
     1
175
     1
176
     1
 42
1.0
176
     1
 92
       12
176
     1
 66
     7
176
     1
 43
1.0
176
     1
 76
     1
176
     1
 77
     6
176
     1
 78
     2
176
     1
 67
     7
176
     1
 79
     5
176
     1
170
     0
176
     1
171
     0
176
     1
290
     0
176
     1
 93
        1
176
     1
 44
0.0
176
     1
173
     0
176
     1
  0
VISUALSTYLE
  5
133
102
{ACAD_XDICTIONARY
360
28B
102
}
102
{ACAD_REACTORS
330
12C
102
}
330
12C
100
AcDbVisualStyle
  2
Wireframe
 70
     5
177
     2
291
     0
 71
     0
176
     1
 72
     2
176
     1
 73
     0
176
     1
 90
        0
176
     1
 40
0.6
176
     1
 41
30.0
176
     1
 62
     5
 63
     7
421
 16777215
176
     1
 74
     1
176
     1
 91
        4
176
     1
 64
     7
176
     1
 65
   257
176
     1
 75
     1
176
     1
175
     1
176
     1
 42
1.0
176
     1
 92
        0
176
     1
 66
   257
176
     1
 43
1.0
176
     1
 76
     1
176
     1
 77
     6
176
     1
 78
     2
176
     1
 67
     7
176
     1
 79
     3
176
     1
170
     0
176
     1
171
     0
176
     1
290
     0
176
     1
 93
        1
176
     1
 44
0.0
176
     1
173
     0
176
     1
  0
VISUALSTYLE
  5
13F
102
{ACAD_XDICTIONARY
360
28D
102
}
102
{ACAD_REACTORS
330
12C
102
}
330
12C
100
AcDbVisualStyle
  2
X-Ray
 70
    25
177
     2
291
     0
 71
     2
176
     1
 72
     2
176
     1
 73
     1
176
     1
 90
        1
176
     1
 40
0.5
176
     1
 41
30.0
176
     1
 62
     5
 63
     7
421
 16777215
176
     1
 74
     1
176
     1
 91
        0
176
     1
 64
     7
176
     1
 65
   257
176
     1
 75
     1
176
     1
175
     1
176
     1
 42
1.0
176
     1
 92
        8
176
     1
 66
     7
176
     1
 43
1.0
176
     1
 76
     1
176
     1
 77
     6
176
     1
 78
     2
176
     1
 67
     7
176
     1
 79
     3
176
     1
170
     0
176
     1
171
     0
176
     1
290
     0
176
     1
 93
       13
176
     1
 44
0.0
176
     1
173
     0
176
     1
  0
DICTIONARYVAR
  5
25A
102
{ACAD_REACTORS
330
254
102
}
330
254
100
DictionaryVariables
280
     0
  1
1:1
  0
DICTIONARYVAR
  5
256
102
{ACAD_REACTORS
330
254
102
}
330
254
100
DictionaryVariables
280
     0
  1
STANDARD
  0
DICTIONARYVAR
  5
255
102
{ACAD_REACTORS
330
254
102
}
330
254
100
DictionaryVariables
280
     0
  1
STANDARD
  0
DICTIONARYVAR
  5
257
102
{ACAD_REACTORS
330
254
102
}
330
254
100
DictionaryVariables
280
     0
  1
Metric50
  0
DICTIONARYVAR
  5
258
102
{ACAD_REACTORS
330
254
102
}
330
254
100
DictionaryVariables
280
     0
  1
Metric50
  0
DICTIONARYVAR
  5
25C
102
{ACAD_REACTORS
330
254
102
}
330
254
100
DictionaryVariables
280
     0
  1
1
  0
DICTIONARYVAR
  5
25D
102
{ACAD_REACTORS
330
254
102
}
330
254
100
DictionaryVariables
280
     0
  1
15
  0
DICTIONARYVAR
  5
25B
102
{ACAD_REACTORS
330
254
102
}
330
254
100
DictionaryVariables
280
     0
  1
0
  0
DICTIONARYVAR
  5
259
102
{ACAD_REACTORS
330
254
102
}
330
254
100
DictionaryVariables
280
     0
  1
0
  0
XRECORD
  5
23C
102
{ACAD_REACTORS
330
169
102
}
330
169
100
AcDbXrecord
280
     1
300
MC_VERSION_DATA
 90
      103
310
06000000020000005C0000001C000000E304000000000000000000007801936764E510E36400026E088395819399898999994140899349F62E13AF228B3C8B088B228B02833B4311432243014306432683334330036E9D5A47FFFFFF2F050039080A315C000000
  0
XRECORD
  5
23A
102
{ACAD_REACTORS
330
169
102
}
330
169
100
AcDbXrecord
280
     1
300
McDocData
 90
       54
310
0600000002000100150000001C000000E304000000000000000000007801936764AB1659E7FEB0AAC51ECE9002004B9A078B15000000
  0
XRECORD
  5
16A
102
{ACAD_REACTORS
330
169
102
}
330
169
100
AcDbXrecord
280
     1
300
MCS_DOCUMENT_ID
 90
       60
310
0600000002000100150000001C000000E304000000000000000000007801E30D8C3FFDA2F566B4FF8CEBF1D55D87AAF5FE03010079FB0CB315000000
  0
XRECORD
  5
231
102
{ACAD_REACTORS
330
169
102
}
330
169
100
AcDbXrecord
280
     1
300
MCS_PARAMS_DATA
 90
    14846
310
0600000002000000847C02001C000000E304000000000000000000007801ED7D09B81D45B1FFC9CC6439211242C2120249484C20272C6189610D21289B2041055C10F9AB0F111F2A880BC27BC627A022223E40590501D96573F92B8A224F64955D14E1820AE202A2A26C22B9AF7E7D66CED49CAEAA6EBFFB3D3FCDE9FB7D34
310
37B77FD553E737D5D555D53D73664E1A9367599E4FA5FF1616F3F26CADBC189E98E5D9B83C1B35291B978DA2FF0331BAD56A0DE7A387A99D94ED81BF8D1D9FBD32CBDBD9BCA16CF2CC6261F18A62AB62BB62666BC76271B139FDB6B0D8B158EAFEB6B8FCAD9D8D1DCAB229C582A29DB587B27C3DC22C2D6874F54253CB0B4D
310
CAF2CEE78787873BD7A1B9819A3C2BA2A40E84C027D09C00A97C792B4A6C1E2496A1D9C789B5E2747C7A05494C85D8F4AE98CE21FF68DF86D82FD1FC9A9A3C6FC57DB6632071199AABBA62E3A23EDB9E903802CD914EEC15B8EF0B1AF77D3DF0DE6E676B0C65EDE9748FB629B62D5E53EC42F76B7BBABB4D63985DDEA36974
310
8FEEA04F4D77F9A9ACD86CD3CD16F47EDBD2DDE3F16ED0CEA560A6614E9C0ADCA5BEBB5CCA1D6ECABD1E72C7A2391E38779F4BC1AD4DC16990D903CDDE4E1077BA146C9982EE7E4D86E0DA5D41BAD7A5E04DE055FD889780FA9FA179C4F18FBB5D0A9E680ABE0F325F4273615790EE7729B88F29B8083207A339D409FE25A7
310
3B3EBA71C757C1CD19E5945ED1547D8CEB99E56E61048A3E4C18E56E4F040C37230646D4C7C0E2746B11AD11A33D9348A4354131963C92C46713892327F1F944E2C8497C2E913872125F48248E9CC4C988C7D2EA2C4721B10BCB8BC912476E897F4D248E9CC4BF81C4318D60BB4AABB7936D9C27C41A8465880AA491EA6A18
310
9ED7AA1896C4AA98087D1012063E79FE924ED6D430591A8429A7401A6469184E968A6164A998087D3859DA382B125994B3CEA27A09B32C8DAC165655791A6E18B62C0DC2EEA40269589686E196A5629865A998087D3859DA38C3C9B2E22D6B946E598A317207AF41D89D54200DCBD230DCB2540CB32C1513A10FB72C6D9C29
310
3A59EF084F430DC29453200DB2340C274BC530B2544C843E9C2C6D9C5C274BE177802D2B4B64C5FBAC354156D1084AC7A2CE3B2E6BE9B3308020A3B7116E0E062098822108CDC01024AC0BE65F6094F12069668324570C1F3B5FE7C806905A26C031642340500041FC0410413DC08E3DC6EA20676C839C19B020DA355A6B28
310
1BBF5EB1463183FEDBA058AD9855AC57CC2FA6163A6BE52EC68DDE868BD381423CECF695A073559063AF447D444781C112855D2359ABBC452C96A84D0C54ADD73803456C966361D748B9E24FC66A73B2BB2F4372DDEDD71E29F55CD110A45E69E40A82CF490DC2E6A40AA9E7A40A09EBC2E6A436CA7A6D22695AC3EC5C4E99
310
CFCD9455B4B7241A10522D308AE329840151410C3115C444E8D38B1FF48F95FF0916B5994896C22F274B8330E51448832C0DC3C952318C2C1513A10F274B1BE701909535C85A150E2D1F73C6E9F8B9650779DE82B23820291A0574F4C52141622492A88C4446EB095AE3C69C89692BC61BCAED00ABB6E7C2926023FED57CDB
310
0C90D4B4C0CA53182C852011D3A37728867C8972A5FC9F6DBA2E42FC11755A6937CC623AADB4231D50F9C48338A0820065F5E2D5C5123AD0B2888E236D4FC79416D291A576B6DE50F6B275E92F3BD29197ADA81F4799EA7E7706C2F14D23F69D89E28758D6A7AB744EA778A073058282C8A34A4FFC8C04DE0EA90F43AA76A2
310
F6C5BE06B18D20B6A313EBDD285BEC3F20F60CCE848CEF8A55AED616DB1962DF85D8BDEE2849E451A58910FB04C4CEEA8A91E78820F2A70F90C43288FD9B139B96D21622CE4E5BB25134319A81B90B18C9B9348E24F128D20690073101CE526D048C328020FB0B20827A603D32C7C8B2C48D6A07A8F936579F726DA73D30FA
310
797E07ACE0F9301DA0741C232BABA30F1D43772D340E0F78D481DC0A141C09695B1814A3130B6E749D765B44A435F7EA5DA2372A2F5AC34629250C22158320C75B1885C9178122E62250517A81BBF0581F9DEF91D7C65A3D0A56A63BAB2086540C611C734110880B8388B730284627B0161C69B94F5AC5F4B0C55A18C4EEAC
310
3A52C3E27414B73803C52CCE4045E9C52D4E1FEB633A7974D85737B98A3C1DC49454410DF2741427CF4031F20C54945E9C3C7DACFF32C8C3B301E425C512558F3C15C495D4404DF25454833C1DC5C9D351517A35C853C7FAB84F5EB58AAAC4D90052CE0438C26C04C80A2088A80022A80708B2C7E8BCC70BCBD6C04240B5E4
310
970D65A3D7A70AF21AAE861C30B276E74EE43232A1D5CD6C0B4F2054EAD546D6EE1CA30EE5221167D5EDCE0106AA32B276672B0355EBB5BA81AA16D476E7496442E247CCE7FB3C4E2E795C65282BA617EB108BAB85EBF077AB8AB03AFCE52A88B3789C8EEA4DD576E7400355B3B88D81AA599C62A06A169FD2595CECB3C877
310
36D625066712936B176F6D81D1E9C4A97C3F101E976632D83B1B9BF88CF2F93DA5589DE6F74C6234C8E360CFEFED7D1E6797F37BDA5036815B66C5E91A31FB6EDF57A70C9BEF67A9203EDF3FA8A3D87CC79375F2BDE6FB6E1D0355CFF7C240D5F3FD617DBE6FE4B33AA76415E5C0E9C5A4A243F6B90EAD42F369CEFF1DABD1
310
F754D518AF67A820CEEB113A8AF1FA1A0355FBD10D0D54CD6B66A06A5E1FD279DDD8E7D5154969559F34948D6DF22A5B03F3A0B7A9EA302E2F54419CCBE53A8A71F926035573B9A581AAB95CD540D55CFE46E772539B4BAC42D3DC4A849DF6C465BB6370B983CFA5E64539AF415607DB8B7E659917C3F3A788679075AE4B5E
310
749E8BE4D72E360D5BE94DEAA46133FE3C15C467FCD13A8ACDF87D0D543DE31718A87AC6BB4D15394AEF258CEDCE63FA8CBF027C362B8BE18752E12F2350A46618E5F88B8081C018183118038BD30D1C468C76652291AA32237C46F72A90289F9C4FA750FB8E64E5DF4C64C59F425DE2AFC45AA68DF5635A4CED62B033ED6B
310
93C31BB9C3BB1A248E6B9C04E36639994C1149E0CCD6E6AD4D5A5BB416B4B63476AB5201881ED0BA068C36F796AB634BF4AE216157D9E8A50041EF75418BD18D60C5EAA620C5EAB6AF8DA0C490FE0E48A08D61E1FD4AD3F5E4C20D48B5700D52A9A4436A4E0C4C8F180B53B1636122F4E9F1648CB3C05F1AA6954599C943D9
310
B8699446600EAE4745C3B93129EF2D6AD4CE92890B54104F26FE5347B164E20D06AA4E26363750C464E93C2618A8BA7CF0B89E4C6C0E36C5E39786E70A1C3322F56C84E32C0001612108B11582847581CD0546D90C24C94E2A379D94D05BCD827C2EBD58ADDFC1D51352EEEECD45A5BB9A864AB77DEDDEE493A5B70009CD63
310
95D5E658239B3D0893910E551E90D1A9C9A943D92A93DC59CA99ADEDE8BCE4123A3DB9905ABCE86DE250366646B1937B05DCE2626BFA0B8A7F6B51DFB674C272299DC2C4DF702273863B6FB9C8C9ED426732D1E38E18890A4C2F1558332B3A98919D53D1A01CD0B91AD305D33A28F82AC0F747F32E34F5B9CBA0E42AC0CF42
310
B3299AC5D4D073C864CD41C9BB699ABAF254F7F4A52B5FBBAA7750F20B90BC028D7B61DCADF45BF75D7141C9B740C8BDF2ED63F8EDA4AE244D89A0E46CE0B741B30B9A7D9DE496FA4C21AB309673A19759ABDFDB982942379F2952379B2952B77D6D3E5304E95D4042F39C258F12F1F0D34CFA6F1D6AE7D34A1555F21AECE4
310
655730AA96BCFEA6C748AC12A4A1E8568751CEDC226030BB1818995F0C2C4E379863C468BB8144B15AB3C228B99651A60AA966CAA85C83D453D5C0F4E6AB85A926AD8589D0A7377D8D717607591B374272E711D533B295835701A4983982A3C946F45611ED22F56AA123827A801E538FE2D8BDFC473CCB80F4E087B4FD5BB6
310
63B7930E22EDCA91A6AB20C754897A9E1EA890A73F3F8B738F8122A32AC7BADC40D57A1D67A088B972AC035554B1BE63AFE9CD9C1465800F3FFCB0FC697AEC99A04A4B0B54B367A2606B41ADEA3D797BAC28BD6077C12B16C7E9B6F7243D131260AFDDB94907555AB63BE7A9A09ABD76E7681DD563AFDDD9D740D5B6B7C040
310
D57A8D3750157BB477F4538D876256B23DE930AA7B4F50D8F63EA1DBDE53431AE7BD99DBEEDCA283EA7B7C810AE2B6F79F3A8AD9DE1B0C546D7B9B1BA85AAF0906AAB6BDC755AF5DCC4EB63702DBFBA46E7BF7A9F39DD9DE953AA8BEC7C7AB206E7BEFD051CCF6161BA8DAF6D63650B55E4FFF449B5DF5CC6D776E5751C5CB
310
0DDB1B5EBE24B06AD0E2A6832A2D2D50CD9E89EAB167A32AF66C54945E7CCD553F62F129DDF6AEBF57BB33CCF6CED4419596EDCE075550CD5EBBB34C47F5D86B773A06AA62AFDD290C54ADD7C3F7689F90DBDE37555431C7B23D6DEC1E7BB8C92AA8D2D202D5EC99A81E7B36AA62CF4645E9D5B03DED2316C7EBB6375D8D86
310
7AECB53B2FA80E8695F7750F5AB3D7EE5CA10EC5738D4F1AA88ABD76E76D06AA62AFDDD9CE40D56BEE9A2AAA986BD9DE72A3C45F0543C32AA8D21296A0816AF64C54C3F6D4B17AEFDDB1C78AD2AB617BDA158B4FEBB6B7F049CD6299EDADA6832A2DDB9D279ED046AAD96B776ED4513DF6DA9D730C546D7B471AA85AAFD719
310
A8DAF6365651C50686EDDDB37C7978CDD541959664092AA866CF44F5D8B351157B362A4A2F6E7BAAF6C586027BD523A0D71B133788211D4318475D1004E6C220222E0C8AD109B485462AE609AC55AE6CC99288384F07B17BAB821A36A7A3B8CD19286673062A4A2F6E73EA58454760AFA2DC7A82388861F7571BA761732A88
310
DB9C0E6236A7836274E236A78D54CC1758AB6CCE3DF82A657DBD55821C8A0E62F75605356C4E47719B3350CCE60C54945EDCE6D4B18A8D127B927DD4B9856520C5C689BD11B0778263AFB953EB666EBBF355B57EDF9BB9EDCE893AA89A21EDCEBB54503D73DB9D9D74546FE6B63BEB19A86AE6B63BCFD12B95E4E8CA7D7F5C
310
F909EF3650757C77998A2A36316C6FF970447CA7832AF6C8F65550CD9E89EAB167A32AF66C54945EDCEFA9DA179FD16D6F514C5EBBBA0EAAB46C777EAF6686357BB425A2A37AECB53B5F3250157BEDCE5106AAD66B1F0355DBDEA62AAAD834D95ED0EFE9B677A26E7BDFBE5FF31DCCEF7D5E07D5F7F83015C46DEFD53A8AD9
310
DE1C0355DBDEF08F35DDB9DF7BC040D5B6F75515552C48B63702DBFBAC6E7B3BDCA7DD3F667BEBE8A0DAF69ED12BBB78A365B902DEA9A398ED5D62A06ADBFBB881AAF57A8B81AA6D6F918A2A364BB63702DBDBDC60AF15B30BA483AA7B4CF1830AAAFD9E89EAD99E8DAA6CCF4645E9C5231655FB620B833D75ADE9CD5C5253
310
07312D5550833D1DC5D933508C3D0315A517674F1DAB3849F77BCFDF10E1F7EED5419596B443A1826AF6DA9D4FEAA81E7BB44361A02AF66887C240D57AAD69A06ABFF7477A4E5ECE5B8A2D0DDB6BC5D4927550A5A59B474AD652B367A27AECD9A88A3D1B15A517B73DF523160B0DF6665E1F5115D5414C4B15D4604F4771F6
310
0C1463CF4045E9C5D953C72A5E21B017AC78B2DAB85638C4FE63681C475D1004E6C220222E0C8AD109B485462A1609AC5555D1E1EBD791E7395F2D7410BBB72AA861733A8ADB9C81623667A0A2F4E236A78E556C65B0D75AAE7849CE9E0E625AAAA0067B3A8AB367A0187B062A4A2FCE9E3A56B1B5C1DEB0F62246CE9E0E62
310
5AAAA0067B3A8AB367A0187B062A4A2FCE9E3A56B18DC1DEF298B55607312D5550833D1DC5D933508C3D0315A517674F1FEBE155BC877FCCC3F4303B1B40CA990047988D0059010411154004F50041F6188F801CF16953E5CB25C04EF970A68620B56C84E32700014121083114828475014781517EA192D4D257CD724C0D51
310
2BA62038491A8491A4426A9254485817469236CA4320A9F9346AF53C7CDFD76FEC5E3E0EBA34CBBBCFA3AE474FA0CE6CE1DB3DB6A3DFB62FF6A2674DF7A0274DF142D959F4BD1EBBD033AA783EB57A1A75474275FFE69E39552EC3BFE5E3343CF879259A6B71760F815E84D4DB2070249A6320E5EE4884D87C482C45B3A713
310
C35D8A10FB0B1EDA5C05626B76C5E8CE45885D07B1FBD03CE21EF88CFC968FE32071369A8BBB62340D22AEB617240E427398137BC7DA9AFF50EC84F90F0D113647940CEDF9E5CEFF8520FFA8A9B111486A6E6A9A5E79A056A08D41CEA03FCABFC02721F4CD1830922086A65208E3BC5A10041F1606D1840A836274C27A131C
310
E9833E69CE83E5D28B1C4097D15B2D08A26CEDF8E5EE9E8357BA2B47AE74DBD70615BAE2F9877C129C6FC9E7884FF7AB7DA484D6E73EBEDA890FAF77D247D73BAD6BE263AB929BF91F5AA76865BDF39B2612F27C9344429E7F389190E747FA2468FEA3175F494ED2724A883BB541EB37CA08A3D6AF01103BAD6B9A8EF023FE
310
871E3C4778542221CF8F4E24E4F97F2412F2FC3F7D12CA507A0BF773AFF9E5803A869C54681C9E4BA8033947191C897D39A031528C4E2C97D0473A6FAD94A2AB6FA8793F2CAAF97A14F67623E595D5586423507407C32867571130E4223130CA4A626071BAC1BE22463B02248A2F7BCAD2ABB9FB5FCDFD769035BFF1B2A72A
310
AE192BE6B5462FDD45BDB791DAFB433B5F6548C34B59DDF6B5613986F405F049835E19FB722221CF2F4C24E4F9453E09A11221D6A02086E66808C3E31A3AED4A3FC2372CF3B8C60091C7085E0E7B386110798F20E8303F18AC3C8EFFB2DB95B55276B84F8296C5AF3CA581F7E14337DF8C5F9EB2FFD5B9DAA94E7CFA1274BD
310
0E22E32C4167AA2037634AD407741402B612B59781A23953A2E619A85AAFDC40D1AC29C71A3A47E321BF18BEA6197F34A65AB1448C428298FE792D8CE3FB1A0904E242577345A7302846279643755D9BA4D3F9202DA509F29110F7F870449A703AA6AD9826686F73ED796DFDE5A9ECBC83364A1D08EBC3D4D1B085A942620B
310
4336E796210B5305C706E69214120C5725E951F4DD1DDE3495C2944B7DD2AA90C07F7576CFB8F2B938B5D3FFBEF0EA3E8ABDB549C9DDF061FA959DF7B2BAED6BF3DCCA573CBF440F091AEFCE77710251CBE3021940EA54418508706CD808101240D0E40A20827A80197B8C676021E9BC8A7C1B9F4DAB1C85004AD12F76957B
310
0E248AAB5C2A86E5FDC5B015BAC31E9C1C6ED827A111DA0A2B1D7C761043EE3284F12372E162FF94D97FCB5FE5AA1575702C675422816E762221CF739F842A10F2225B168A797D2CC4EAEF6B44795E270FF0FC4E16DBF99DD6357944E7493E0FC729D681864ED4EA1FF09C6591E49B3A88542A4127AB20C747893A54478198
310
12B58B81AAEB40EB1BA85AAF173FA37DC2FA6D5EEDCE8F75D40B202FD581DC2C11134CA90EF422484B75A091D581BE085F2546C85A05A797AAEB059395B50EF4D7344DED3A90344DFF06D29ADBCBA1483845D42FF9A45511B55F65EACDC87CEE4A553CBB428FA3C49A0978A8022D19C0A21B11D008AB64048FAD14040BB014
310
44500F1E6AC963FC0F2C2415CF64727E0072526830B2D0E04690288606A978E615CF6ED31DF6E094406EF749484B3D96E47C8C7E52E7473E69D5523F389673472221CFEF4C24E4F95D3E09554CD75F73E2F19ED7C742ACFEBE4694E775F200CFEF64B19DDF695D9347749EE40FF1A1C5E2D9B94769A5257CFAB29675940E22
310
954AD0BE2A8817CF16E828563C1B6FA0EAE2D9631FD174E7AFE5FDAE81AA0F519DA6A36E0279A978F6F715CF6E066929421E59847C462A9EE55955AF75418B5E13CCCF0359F634159339F8B946144945261948BE2E0AE8FC5D1C123E2F12497E2F1219AD27D68CB8316FF157CD86A0B093ECF12A61FA5515303E9B12C82352
310
04F57328826274F2989346BAD527AD8ABC07A7C876692AB265F91CD9A3E477C34252914D74B7F93D298418F909B57B41622AB275CF14972184565ECC1FD01DF6E0944A7EE6939096FA5091ED419FB46AA91F1CCB79289190E75BFAF1CEE059C2429F8495BFC8761FCC5F2CB26D7BB056A86245B635751065246591ED4FEFD4
310
46E245B6DB74142BB27DD940D545B68F1AA85AAF371AA8BAC8B6858EFA31C8B3B3F7FEAAA697600AA7437052A8B17A09183FC194405E822982FA134C1114A39397604A23DD0FD252914D49AE4061C4938A67C2578911723AA1E66D439F0FB2EC692A2673D25C9581C2E41081E2AC9591D2D45590C2FC5590D17A4A33591EF3
310
277EFCD4F05D428DC9E355C2F4AB2A607C36259047A408EAE75004C5E8E431278DF4539FB42ADE1A9C22DB657ABC259A1ACCA60AC86400DD1F13E00CC646C05A020832950022A8078CC41E630816928A6CE27DCE1F4E21C4C88B6C8F80443184D04A4D9880816A143BE4AE8DE226616018FEB203759CDEFBBFC8652A6F7173
310
5BEAC16BD1640C611E4D0E3BCF3F0A87BD71E3C570CE8969EF2EEC396C1550394A0D503B6C15D173D83AA272D83A22A847CF61AB637C0CE4A869CDDFE4701F0CB1685F43917A6194E32A0206C26260C45A0C2C4E37F01731DA729028FAA494D67869CDCFE193C4D2CDF27DB5820B0CAEACCABC5907D13D2D41AF5041CEDC4A
310
D46A3A0AD656A27EB78FA6957BDD4889FA8181AAF5FAA28122532BC7FAB08EFA05C83372C209112F999230A46223FD11308EB92008C48541FD698B7439EF85762288580B5EEE3190A6FA38E5B5147D3E4E4335FD8882EAF7711AACCFC7A9B0A68F536171BAF5F9386DB4B3928F8B3F1FF5CBC034150A8CB0B786254B98FE69
310
2A60FC692A81BC692A82FAA7A9088AD1093616FA70F9AF405A7AB8D0C5A6D541BC06695249E6719F349714E473A5C707C9C68C5EBA937AAFB32BA31B166575932D59DDF6B5613F86F4E5F04D4DCB31CB14986B3680D431018E0D1B01420208E2248008EA0166EC317E0D0B492519B924F31B9093420339CD8B7D33D76F41A2
310
98FE68050E4C40379FF51AC8CA5A92792A39EC3CFF934EC278FF8D9195B1E47333A197AD1C7E6F63D512BAF9AA2575B3554BEAB6AFCD572D41FA699D84C139C7F4679D84CCB404A197DD0DBFB761094237B704A99B5982D46D5F9B5B8220FD179D84C1D957FB1D4810EB4207BF52ABC0601D298B263BE920BA372568BA0A72
310
E651A29EDF49BB9E2BF097A87B0C14194B89BADC40D57A1D67A028C02BC73A50473D01F2525DC845C262EE24158F7E0FD252F037B2E0EFEC54178AAF0B3D1998A6428125D585FE00D29AD97DA82CE29126944EBCE38A02C6AD0AA18BFD53BEC6F58F3E697A01A5978E51842D041C2CB6F17B1B7195D0CDE32AA99BC55552B7
310
7D6D1E5709D25F497521FD79B802E4A4BA905C171A0D72526830B2D0608C1A1AA4BA90B72D3EC1F75595C31E9C6AC0CB7C1242AB6F5AEA57F5491B3CCB999848C8F3D51209793EC927A1DA20939E6A52FB28F2D4FA5CCCAB76F28DBFFE2BBA2343BAA4754DBED3E70DBB87FFA12B1FE0D71B79B82FF4B290DBEF6D84FB4237
310
0FF7A56E16EE4BDDF6B579B82F48EFE993A0510D0AD43EEB2E2CAFBE3B2B9FE395A75D22A88DFA7F75E7C7E2438B65D3CD36D5CA98F8F4654D71820E221A4AD0AF37D14672E650A2BEAFA3601525EA4C0355974D3F60A06ABDF6325075D9749E8E1A07F28CB269AAC7F8E709F336484BB9D1C872A37340A2B8679E8E0C7BB9
310
D17890952A806E69117737A4D2E52A3E695548E097CA784820F4B265D9EF6D840442370F09A46E161248DDF6B5794820485FE993502DD062E187C7053280D4314768C486E2108D3041411027F655703A3A80089E0C5B1DE4A40AA07C0B26839CB4CA8D6C959B0212C5552E5500BD556E0D902546F2EF9CADC5DF2C925FAA83
310
C85794D1F77A2A8847F2CFCDD2AEC70F40DC6DA0EA48FE320355EB75AC81AA23F9B7EAA835415E8AE4DD92208608422A93AF957CDCC81F483E57F5712992F77CDC05E1692A2EC7F0738D9D00326719483E250AE8FC5D1C12016C2492FC5E24325A4F44B87163AE0D72539AA4FB40294D9AEA93367869D2553E096672315069
310
D23A2027A549A2BBCDA7819C9426C98B51EC0334EB82C49426C5BD3878AEEEABFAB7C5B89BF2FA6801AE7C5C7F5FA386E375221C5025F17617BDD3BAA6B9BF37C7FFD0D52A3538A7435E9E48C8F30D7412FC678C30012A3B117AC91CF55E37098C6E5ED6F5C776DB9D96B47D6D5ED61506DF309190E7878084A2F15EA3B138
310
BE3B2E6BC9CB11AC2180A0BB62239C550420B08C1084DC640812D605561218651E489297D69D75969CE112951AA4325E1D52CF1E03D39B421686980AA8D3785D98A2B20B4542E3ECA55AD4289DABF2066888FA2E2A086E511A8459940AA92D4A8584756116A58DB24CF73D63BC2321DC010BBD951DE573C946BD4003674D2A
310
172A74F7AC4796EEBD674EE9B6AFCD1DB070EDBD7512FC83399C04A19729E2F7D6F3883E86D0CD4990BAABD9A348DBD7E62408837740C23A0D073C010EB8DDCE8AA7B251B39B73E6B5E81A3B3EDB3D2BDAD9E4A16CDC86AD69C556C58EC5D262666B766B5EAB9D4D1CCAC6E0AF9BB4F85F38AA9DAD3294151582AA3DBDCAFE
310
09C3FD35FBE9E505D7CC8ACE89D4DB3907CDE568BE450DD95B4F782FFCBB91E071E1BD21F23634EF457334C0EEBE949B0A93F007557A32645E8E6633348B01E6DB08F7AEB0A47F4CBD9DC7D1FC194DAB2B4D77B5BCF6A9A6F4172073319AAFA3B90160FE7D85FBE10FAAE66F84CC21683E84E618809D1F2DAF3D157F50A5A7
310
416623345BA3D919E07C3D988CB8C7F3F176FF602E8DA05A3EBBC907E8A0FA666EAD82F84D9BACA330A7CA8FF8FB719A56FCE5673719A85AAF2F19A87A8FE7281D3503E4197B3CC2339EE0AE513C9530A46208E3980B82405C1844C61B06C5E804F7141C693A484B059AE63CADA6566C816666C0F284CD35CFF2244CFF5D16
310
30BEE54920CFF24450BFE589A0189D3CCB93465A1FA4A5ED8886AD35A6ABB41D31CB27AD0A01297C28F27CB83A805CAE0C462FDD49BDD7D995D1CD032BFFCA8DF45EEAB6AFCD032B41FACB81E92639F108D7EB3DF12B8CE34F3709E44D3711D43FDD4450FF741341318EFEC20069C2144D3EEAA20069C2DDF0489330317715
310
E95DC31F0803B940390CFAC75ADAC501D292A509A7E66783347135DCC2FDDCBB83E8DECB7BAF636A4B5331DCA7E920E6D30C506D69062846271642E8239DBB079196B65E1B39662F9EF812C84991FDC822FBF31289233F02773E48948BECCA375C601175C127457F1A84BC480052C7B0FA306E050D8DD3AB955AE344E8D38B
310
6B8D71BE02B2D654AB861B35ED79CDB288B76A96751EA1E257B7B4B8092F0ADD8C9A58C3454C29852690D0A5D4DBB9151056EF3BD514F91044BE008823B82C05FD3F53865E4D36DC79BB93C14252CA6C6CCA4C840C3D7F88AA1AAD2BA5CC0B2894A91FE741D4D25E74B5343C0251CADC68CA5C04999BBA3275A1E973A6CCFB
310
2173B293B918374C5CB969E6D08F90C67931A284A95749751CBE72EB20B6721BA07AE53640313AB1955B1FE912909636273111D5FDD8FC2ADD6FBEA33905AA459FFB4D0DC2FC940269F84D0D03ABAAFCA68A21A30A6222F4E17E53BBD605204B2C9DEFFAF48A3E8FC1E92A5DC46C1D440A96A0157FD246E29EF0A73A8AF9BE
310
6B0C54EDED4E3050B55E0719A8DAA32DD15117067C98907A7A3E4CC2908AC1ECF45F36CFBD1AA4A5005BF644B1A5F38B54CBFBD1EDF879D2CC7B754C6D792A86AF9E3A88AD9E06A85E3D0D508C4E6CF5D447BA02A4ADD588112B379B356FC7AE65A8B7241BD30D0D17B4B3314F65F9824DE897B14F6505FD42BF8D7B2A1B8D
310
DFE8D7F653D918F72BFD3EFEA96C6CF7F7052EA2542EB261799199D998CE1908DACE42732E9A2FA3B90CCD35D4B818336210FA82A3E1CE7E68DE8CE6403407A139949A6ED419318A8B1FB1F9DC5903CD3A6866A2D9809AEE1E73C428B720D2BB0DCD9D68EE43F33334BFA0A61B99468CF271481C8BE653684E44730A9A33A9
310
A151C8342246D91E123BA0D909CDAE685E83661F6A6814F2F511A33CF71249BC80E625341906188766A21BE5AC65645CA9A8D24831AA80213F1BE4249FDF74323D766080ECFBF0B4EF8AFA62229132238D9D48122F07892983B233A8734052AA3C359706A5A0965F08B28C4246DAB711F66DCEF349734B301D282C303FD50D
310
79A1B70A0244D93A2997BB7BF9B8D25DA5E24AB77DED5E64214B7F5927810A1C0609422F53C4EF6D9020747312A46E4682D46D5F9B9320485FA2FB1AA56631C0D59A4B41565ABDECD5EB5C902496B43EF0885688824D95D5AA653A880CBD04CD5741BCA4355A47B192D6230F6B5AF102FEB70C54ADD7C906AA2E691DAAA3BE
310
A4FB24FFAC766F26927F137A995FF07B1B3E49E8E63E49EA663E49EAB6AFCD7D92207D194848E9CAC8D295F3754BF297016E49422FBB9B7E6FC392846E6E495237B324A9DBBE36B72441FA029D84D1E6122FF43245FCDE060942372741EA662448DDF6B5390982F42F37A5E9944A237269E4172027F99A91F99A4741624A58
310
E312D6DF80AC66C25AE55EFE43C1DC310BBDCC2FF8BD0D9F2474739F2475339F2475DBD7E63E4990FE2D481083C465F470946C8D2C489CAF8348AD32481CA3821C3325EAE7541B97AFC79FE7BAD640114FE558A718A85AAFF718A83A48DC55473D06F28C478652C9432879BC7F0191A63AFABFC926009363A5610D45F7368C
310
72461701C3B48C8191D9C5C0E274C3748D18ED71DF77953BE5EAB61F280C6248C910C6D1170481BC3088A80B836274026DC1917EA592D63D69241D41A83F868EA91554319C341DC4483340356906284627469A3ED2AF55D292A569470CF2AB405A8AF4E548FF4A90A32E00CABE56DF02A0A1C8EC99F75450FD0B8006EB5B00
310
54587301506171BAF52D00DA685783C414E9C745FA5FF77D98DB74CEE788B507B58FEEA0D6E76C4AED8425E99D643F7AA7754DD88A2AF90DFF4357E98D5F9BC0F4327A4909BDD77D74A31B1FDEEAA68F6F75DBD7060586F4B77412841D34A6A8D0CB14F17B1B2408DD9C04A99B912075DBD7E62408D2D7800431C7FB773AB7
310
AE07DC6532B58B0E22B54AD02C15E49829517FFBA1763D9EE3DD6FA088A772ACAB0C54ADD7F1068A4CA71CEB1D3AEAAB202FE578CECD44BFFAFBB094E35144AD64A9FD675B35D8D77CDF154A71528E7731484B91B71C79AF624E4B25D44C9177AB355CC659708097C0C252E41D17795FEAFBB02A5AF38BD13C08157A590CE4
310
F736E22FA19BC75F52378BBFA46EFBDA3CFE12A42F070962FCF5E4755A3C042ECAE0E4261D54C739E7A9201E7F1DADA3405079C17D0D541D7F2D3050B55EE30D541D7F3DF61D8D87FC329067C45FA96827D4D83F603A7A25E0E873F41A8AEE2D2BB1282867741130585D0C8CCC2E0616A71BA66BC4685FF17D578ABF70E42C
310
1FA3967EF39F80B4147FC9F1D7FD2027553EE58A437F5AA484A3F94F41628ABFE2E2AF877D1F56C55F7D8FFA55093E0FC23408B9D9C0288D704C19A67E77468E6393F294E9BD3BC3C244E8C34334ED5A3F0759F273917DAF6BDEBD7C64716936BA9DBD6C281BBD616BFB6221BD6B17EFD96D0F65F966AD85ADABCADFB7682D
310
E8FDBE25FBFBD6EEEF8D2723FB2E33BBBCCCB46C74E7343C7A783E1AF7CE8DABF1DB37F124225EBCE1EE06796643FE0D10C02B343A87A0390CCD87A9693E0F690CB01624E82BF2863BF3D02C40B3881A32C4AA6E6A6B703F1E12C4638F9DDFA0F9039A67A9A101AAE8DB1EE054489C8BE6223457A0F93A3534401C07AF87C4
310
5BD11C84E650344750D39C4B06079321311DCD1C34EEFDBB5BB8011E81ED8831FEB86BB4D896C5F88F5EAD82E8A39571F97755108FF14FD3512CC63FDC40D531FE1E06AAD66BAE81AA63FC968E7A00E4A518BF72C16E252C434D7D63FEF014E38FBCC6FAA0BF3EA6183F14E30F25D2F87B72F974D513A39F057C5C3A2B28D4
310
311E4A96F6F75BDA6A5818520A2EE713AB9AABA69273F655C634144544ACACA4A0FA2B631AACAF32A6C29A95311516A75B5F654C1B6D0A484C2978336DD09E8B5F1B64C98F19AC2A1E3FAA526BA197EEA2DEDBC8B97DE13A4DA3545AEAAE9230A5DBBE36CFAF85C1D7D549F09F3B6C9620BC07C09922BE6C8304A1BB97ABBA
310
7A42FFD87526AA74DBD7E62408D79E0E12A2EA0BFB9589FF5EF44AA4496F5941EFE59C34948D5D9F0A0C4BA8CCB06DB14DB1A0E81CF6AB15F47539D474BFB66712FD6D11FDD7CEA60E65AB34B1335BDD2284556CD8B0BC265EC374F6FE34F4A791E14FC045D642E35ECD8402845571E083BC0183EC8C416E7A8C7EBB078D7B
310
35D301AE6AD0FBFE293FE9E7A3AC8E51F0C53C9D8F618013D0B85733ADED46E9DD4F7B94DBDF4C62D72267DF1603EC8CC6BD9AE91E97BD1B0508AECB7118050583CE338FD26F2D8CE25ECD74427794CA3A6C5D9660944D30CA9518E55A34DBE39F3B7747A194791CEE853DCA5FDF4462BFC11B98DE85018E40E35ECDD472A3
310
CCD427DCE09CFE9BED93D048AB9F37DF0ED74DBD250CDDE7D038CE0F0541B0DE30881C731814A313FC5370A497FBA43973248F38385F063B279190E7731309793E0B248885DD4DCF526BB6F5598AF13A88666C59D8FD15BDC64FD9FFC02A59A2BEA7A3E0474AD4E906AA2EECBEDF40D57AED69A0EAC2EE063A6A4D90D72CEC
310
56BE647056A1D54142DAF5550C3C32E57C1295A054D4908B1A4F809C646123B3B0DF8344B1A8B1A26F47B0DAA7E9E5A9A3721542CEB40CE635489DB1EAC3D4B9BB85A912780B13A14F2F8B35C6F9A35A98D5A3E68858D7FB0E3521FAFED78DACFFE4933678ABE1D3206154CCCBA78569A61D13E16720B4D31DBCDEA0617835
310
41C5D4D34C53A7711E411D87E5F91AE6CF204B0C3EAFF99C1632B253059FD141759077B00A7233AD0C2B97EA28167CAE6BA0EAE0F3D99334DDF9B727DF65A0EAE0F3521DF514C86B069F8DE437EDB8093B6ECF80343594504EFBF6ED8F6828B239B63FA2A09CD145C06075313032BB18589C6E7DC1AAF611FE00129B25FFD2
310
F2D4FD615018C49092210C5F1DD58BB9702238128AA261508C4EACEEA4EBB4E56C222D45F87284BF10E4A8D352D9A7EB9B961AAA69FA0AAA7F5A6AB0BE69A9C29AD35285C5E9D6372DB5D15E01125384DFD8B654B3924520ABE9C3AA60D5DFDA82A519BD7417F55E675946772F2653B6E4C8922C69FBDABD5C471E7CAB4442
310
9E6F9D48C8F36D120979BEAD4E82FFDA09EE13845E362FFDDE864F10BAB94F90BA994F90BAED6B739F20486F9748C8F3ED751206677558AC93E0DBCDCA3A1D76D049189CEDE2253A09836309FBFA24B8125EBE32BF656B3F7C68F19B288C4D83B138DB83A0554CF650CCB4116E790C40B0448620B44C8620615DB05C0646D9
310
1124A5D45EBCDBF9529093527B792EC43E14BC13484CA97D5C6AFF4A9025A7F6FEDB4B78DC22F4B250DAEF6D84F142370FE3A56E16C64BDDF6B579182F48BF4A2761708EA6ECAC93E053B6B25AC22E3E0965D9BBB7972D7A6EF0110724438D02BAF91287C4D48944D22C8A4446EB89B91537E6AE2AB9679C8E9F5B76901D3F
310
233700AC95B6819CDC0092911B42D6E48690D17A32720363BEDA27572F85F2E92BE4E8A49E2EDB70E4BE707D3C452EA3F68ED72BDDF6B5B92317AEBD9B4EC238F3F91AA19729E2F7364810BAF96A2675B3D54CEAB6AFCD4910A477D74918639220F43245FCDE060942372741EA662448DDF6B5390982F41E3E096D645AF9DC
310
FCE696C882D54DAA18DD8E07AB1F4498FDC484D91FB83EB8B0E4F7F4C9A8E6F7E094245EE393D058B656F74F40B085A7BBFC4B18BA37A1719C8104416CA551AFE61E4A0B8F14A3138C2638D25E3E6995E56C9C8F9ED16AE5DDB67E27265F5A3408A91718A5E15A94611A2B8D8A614E46C544E8C3DD8D36CE329DACC199667B
310
FB2484AC2C4DB3D7FAA40526C8004FB3D7EF9C2A88ED7972AA94EF037252055161075E9C9D00D40E07ED0B12530531AE82B837C8922B8883B3E9F75A9F84C6AA273CBBE0AD7A12A63F9013307E702981BCE0520451B01452DB1DCB0E83FA834BE972AF0B902645DBFDA52E09D34F9A80F14993401E6922A89F341114A35354
310
44FE469096F6CFC42A6CFE26909356BF91AD7EFBF9D3B20A4607C7A1EF9F48C8F337F824343C7F7ADFBE5F33CADF9248D3DE53D72D6B095693DF8EA764D2AA26AF6AB799CF6129490CC2CB70AA83F34561948B962260889762601431C5C0E2748BCCE97E0412C59C2E53DED6D62BB1D0B681062115DDDAA843EA4AA6810171
310
A1717A1B67D63811FAF42A99C638F7F80FAD5521C0E01C887899FFCA9BC6EA27A43429A79BE8935659CEE0048FF761FA44BDDC8FBFD5FF8673E8056E3F42731F9A07D1FC921AAAAED4DEA1EF9C2897FF2F087C06CD2968CE44731E35B4DB1925BF14027BA2793D9A37A3791B35D1DF0A300A1213D04C46B30E9AF5A9A13A52
310
DC27B8FE8B24711B9A7BD03C80E6E7D4D000D5360E392D83828F42E278349F43731A9A73A8A101E238580C89DDD02C43B31F9A03A86994C22C0D5E3A9B24C6416C229A35D1ACE706B8034691375E76503E4F7FD89BE802E2D28F3B5F82F6D041F4D14AD0062AC82D43256A948EC28D2A510FBE51D3CADD8D12F5750355EBF5
310
59034595A272AC77E9A87B419EF8F283AF2F5B1126EF241D542BF96E15C4C97B958E62E4CD305064CAE5077E612F4D77FEF2837B0D544DDE5774D49D202FBDFCA07A87087F477B372311DEFE904F30DFD4A53CED8FF9CA225B0D45361746F507DDCA60CEB7468C060F1A038BD3AD2FE8D674BB0B96D7DC1B284328F5D97F16
310
42E9185232348EA32F08C2940D8388BA3028462756E1553F5CFE1D909672617141CCBF0D725285570E17629F90B80E24A65CB819D429297EFE7DD58775178F9406FA6F4ECE6FF049ABD240FFB0662FBFA123C1422F39565DD6B979A3BB97798863D77985D26D5FBB574A91A5FF4727C13FBBCC49107A99227E6F8304A19B93
310
207557C9157D0CA9DBBE36274190FE814FC2CAFF24E88DFE872E0388E4331C0382D3CC7F08D2E4B701D2295312A33C6FB8F1FDEBBD394355010D5219AF0EA9678F81E94D210B53CD230B13A14F6F4619E3DC04B2D691AA09B377EFCFDBA7E0E0FBD8F1D9842CEB8CA6DECE1C40405E9987FE71374BE41EEAED3C0D080A49A5
310
C875A6C83910F91E208EDC52E653A6CCBB21F3692703B24B997D4C994590D9AF2B43E49732EB9B323964667765EACFF3FB5D2D0AEEA4DECE1F00712156799D6F99326742E6DB4EE666DF1DACFC3EF0567CE8F4343CE61EE213D181E5B78024B1AE35445F03220BB189FB4D1D549BF6C92A884FCE4375149B8EBB182836010D
310
54ADD78BDB699F904FB21FEBA8EF82BC54D7FAFBEA5AEBA7BA1685125AC10A4B6F4495EC7BBE430F1588306B83189A1C218C9BB34110A66C184433360C8AD109B40547FA4B9AAEF6C118A90C7D7DB2348D34BD827A047C9C58DF5A51E86BAAAB22D07BEE35084D8400846712DA307C2F54C7D499848E89D0876512EA38C7EC
310
4164A572B31C9F1D0B7252B9599E34B1E5E6E340A2381DD57355B47C95734D85D4E6AF41F87454313CB1D74AC0FCF4818A89D0874D47559F4F81ACE6969963826A738373F4EAF834ED2848554E76C64EBB2B13892327F1D3C97751517656DC56D927409658CD98B8B196EBB36AC6EF365241E45CCBA2DB8D2A885733CED151
310
AC9A71A481AAAB19AF3350B55E1B1BA8FA94CE581DF54990D774FC654A45564C3FC2B1799653EA185231340ECF29D5815CE01A1C094B651814A313CB29759DBEAF4E4F2DDE056781309E9D97D446E1A1858A61A1858EF90746FA27A8167690FB79DCDFC86516A663EABBA962B885E92056B53040B58519A0189D9885E9237D
310
C627AD8AC706E7B578172DF37CD3CABF8171F1207EE82FFAE6BEF2DFE913FD0F5DCDF1C17968E1249090EA40721DE8BF750B199CACFC649D84C19926A7E8240C8E259CAA93303841D1E77512A6886F98ACD614A197C255BDB74E36A808E80BD73B0A4A77956228DDF6B57B354B59FA0B3A09634D12845EA688DFDB2041E8EE
310
255BA4A7D4CD4890BAED6B731204E9D341425A3AE5A5F30C9093B65046B6857226484C5B287165C8CB40D6ACC6D9C8C93886D56E67AB0C65C5FAC58C620AB5F21D61F5C8BB87FBCF0456476DD841C8CB5590F35865D5F2381DC5EA91071A28F25FE558DB18287263256A8A81AAEB914FADD03E627E2AD25FD1E4B4EF89E4A5
310
35E5C01B2FAD2990DAD11BDF39DFF3F616A672F916A6F2FB1686E8728BB381F93CC84A4E4E9E52B11B565F008969199597D1CDD74EE4A86F3DDD02E434F74EAA70DA7F24A5E7A62852147A2B8F20F6D6CE49EEEEF925A5BB72494AB77D6D1E85FA8AE7C7E9240C4E667A0C4810B7204F584DDD5DA42DA172D57CA70EAA97D6
310
A52A882FF9EBEA28B6E43F3B51D38ABF65E12E0355EB75A981AA97FC6374D4C7415EF34075358D06C7828E050969291FD952FEAA1944625ACAE5A57C6790932C6C6416B60B484CE9492323D612B37C5790253E8BD592EF0262A4F28B3C3504AD3B36C22D86010856C2108462A61024AC0B62A7C028BB81A4E65BBBAA7C9FCF
310
E3FC8156F779CAFCAE5636BA9DCD18CA569D566C556C5F2C2CB6A6F6D5D4CE6C2D2E362B96D0EF9B17ED6CFDA16CA28F58522C2816F530F386B2C9EBD0BFB62289C5C5B6E678F387B22916B63932D07369BCEE985BBA6BEC42BAEE586C437F6DEAEA1E0A953E74C65F3436814A0B9D7968E8E9C6E1CE7BD19C460D9958FD3D
310
309CB286F41D5472E83C81663C043743432FA42A1F150D5EFCB390BC1CCD6D689E4633CD89C39682E2CB803F14CD0968BE8AE6216A681E919D05C52701BF099A3DD11C81E66C6A483CE6B3DFF312E1FF806655482E447340579CEC3378F5932179159A3BD13C8B668613DF11B62B274083B321B354276170C2D79D7412C6EB
310
BEBE0AF33508197700D2C88C95611A3B552A86E5C82A26421F9E2D6BE3BC52276B7076B4E7E1CB8752ACDE58B02A579CBF1EE4A4585DF61CB185DD7D40628AD5E362F5F9FE7781850E54235A0F62C8658630CE87074188B3C220F2E261508C4EF0E3C19136F249ABD6ABC159FA374E24E4F9663A09C2BBC5C8942B3B117A59
310
94E1F736021EA11BD3441FFBFFF6CD639BEB24F81B072BEB7E480724885B011F7BFEA5F0BB55F6D7416417E57EC12215E4CCA3444DD251B09212F5C4739A567C2BE0460355EB758E81AAB7028ED4515B80BC14F78C2CEED9042436F753422B595ACA374DA4696FBCD09F835B00D2E4FA0F1D7C2AF29C0FC91DBED0CB563DBF
310
B7B1EA09DD7CD593BA59722F75DBD7E629BD20FDDF202125B272227B32C8490E7D640EFD14909812D9B844F6DD4BD374544F2C1D0272D2741CD974FC779098A663DC743C146489E9D0E14F6889072285323BD95307D569C7862A88A743998E62E9D043BFD3B4E2E9D0370C54ADD74906AA4E870ED151EF017946242FBCBACD
310
8BE4250CA9D8C808048C632E08027161507F514EBA1C3632C323F517E5A491DE9B7C1C45EC237C8BCF61C9C7792FA051CFB91C01B29A6990DBC9C9E7C80B0DE6A80DA0C96002DCECB411989A0104CDCB0022A80772237B8CF7F9E494F37C0BF7F3A8F9FA0F1D53FB0B15C37D980E623ECC00D53ECC00C5E8C43616F4916E9C
310
481625BF945E797EA5975D5386AA41483D571AD6218EB1100684053155C66D5CCBF8723C6752FDEF7F523E567E4B22CBF3559A0DE4B782AC54AD90AB15B7811C3158BDF1E75A58C882D57375104DBD32A23D4A05B9C957A2F6D151987E256A53034513B044B50D54ADD7A38F689FD0EDB797635DA7A36E0279E9B4274E698E
310
CB94E3ABF9CD89248A180247627F348D2C297C24365B06AEE91B4676CDF276B6C650D69E5E6CE98EB02EA0E3A6DD23B1ED6CADA16CFC0C77B875A76229FDBFEE9934948D9DE20EBEE200ED623A94AA1F449D5A5E6A5296774EC1D9D18BD07C072740D5E3A75C06CFD876DE8FE69390A9E3375AE41ABE880BCD077E319AD739
310
A15E4867093D8BD39D6D084DEF0A55519E25F47D08DD87E6B7D418C74AB97AEE28EB3910FA5A57A88A05AD2BED07FC21683EEA846EC4BD6EC6CEA13430A5B8B782B4667858454CA367B45AF4A54468CBC89CEE462FE1C09D1101B40E9823340D561AC29DB2B4C7689C7596C708EAD14B38B48F92DF0E72528DB3E956AA1B13
310
7B76EE0E90284642DFFE891627B048E8F33AA88E380E53413C127AB58E6291D01C03554742C3F76BBAF36F3E7EC040918B2B23A1AFEAA8BB934FE31BBFCEE6424E3DBF2BF934BCF15874CFF93DC9A78DBCA679A7EAD37E4D4FC8C8FE92F9B41B7450EDD3CE5641DCA77D4847319FB6B781AA7DDA7C0355EB35DA40D53EED91
310
BB351EF27B415E444C7E7019281F88981C0FA921F69ED9DA961EFDC22366DB153BD1BFB6A1287C41F11A7A480D517B17B13321B6A7087D0921BA0FAF75FFBE83C3FAB2CDA086ACA3F73D8D3C463D1A81F0E968DC1B73A26275F778D9BF41E6C32E825EDE62C19176A1C9C02F40B393138A8AD51F461CFC229A55BB4231B1FA
310
25C0FF10CD03D444C6EAEE91B1CF41E882AE504CACBE03F0FBA379AF13BA0F36906A478D7CAD1758FD10E488E50FA56E09D75226C21A82E6AF8D704E25008125862064772148581784E681516E0649CD6CCF5592F341FA9A915B741206E6A949AC12133BE3BE43EB4DD19A7B7A9E4DEDDCFB0DFA477E7B2BCF366F67EDA12C
310
9F4E6F4B5BDB1D2244F74D77B8EE83F26C7A67FF732177FFFDF7E72B4677A65E877F9CEE043BEB7E0BFF28473CFF7B95C8769D47AF671D1BDDE0FE71B8BBEEF9FFDFFDE3F4DBF36C7667E79B19ECD9FBE81FF9ED74C9CD3BAB7C171DEE2A533BE3AE75A82D20B2CEFF02809A0F33847C0200
  0
DICTIONARY
  5
251
330
160
100
AcDbDictionary
280
     1
281
     1
  3
ACAD_XREC_ROUNDTRIP
360
252
  0
DICTIONARY
  5
24F
330
15E
100
AcDbDictionary
280
     1
281
     1
  3
ACAD_XREC_ROUNDTRIP
360
250
  0
DICTIONARY
  5
25F
330
132
100
AcDbDictionary
280
     1
281
     1
  3
ACAD_XREC_ROUNDTRIP
360
260
  0
DICTIONARY
  5
261
330
131
100
AcDbDictionary
280
     1
281
     1
  3
ACAD_XREC_ROUNDTRIP
360
262
  0
DICTIONARY
  5
263
330
138
100
AcDbDictionary
280
     1
281
     1
  3
ACAD_XREC_ROUNDTRIP
360
264
  0
DICTIONARY
  5
265
330
13C
100
AcDbDictionary
280
     1
281
     1
  3
ACAD_XREC_ROUNDTRIP
360
266
  0
DICTIONARY
  5
267
330
135
100
AcDbDictionary
280
     1
281
     1
  3
ACAD_XREC_ROUNDTRIP
360
268
  0
DICTIONARY
  5
269
330
137
100
AcDbDictionary
280
     1
281
     1
  3
ACAD_XREC_ROUNDTRIP
360
26A
  0
DICTIONARY
  5
26B
330
144
100
AcDbDictionary
280
     1
281
     1
  3
ACAD_XREC_ROUNDTRIP
360
26C
  0
DICTIONARY
  5
26D
330
13B
100
AcDbDictionary
280
     1
281
     1
  3
ACAD_XREC_ROUNDTRIP
360
26E
  0
DICTIONARY
  5
26F
330
12D
100
AcDbDictionary
280
     1
281
     1
  3
ACAD_XREC_ROUNDTRIP
360
270
  0
DICTIONARY
  5
271
330
12E
100
AcDbDictionary
280
     1
281
     1
  3
ACAD_XREC_ROUNDTRIP
360
272
  0
DICTIONARY
  5
273
330
12F
100
AcDbDictionary
280
     1
281
     1
  3
ACAD_XREC_ROUNDTRIP
360
274
  0
DICTIONARY
  5
275
330
130
100
AcDbDictionary
280
     1
281
     1
  3
ACAD_XREC_ROUNDTRIP
360
276
  0
DICTIONARY
  5
277
330
134
100
AcDbDictionary
280
     1
281
     1
  3
ACAD_XREC_ROUNDTRIP
360
278
  0
DICTIONARY
  5
279
330
142
100
AcDbDictionary
280
     1
281
     1
  3
ACAD_XREC_ROUNDTRIP
360
27A
  0
DICTIONARY
  5
27B
330
13A
100
AcDbDictionary
280
     1
281
     1
  3
ACAD_XREC_ROUNDTRIP
360
27C
  0
DICTIONARY
  5
27D
330
143
100
AcDbDictionary
280
     1
281
     1
  3
ACAD_XREC_ROUNDTRIP
360
27E
  0
DICTIONARY
  5
27F
330
136
100
AcDbDictionary
280
     1
281
     1
  3
ACAD_XREC_ROUNDTRIP
360
280
  0
DICTIONARY
  5
281
330
141
100
AcDbDictionary
280
     1
281
     1
  3
ACAD_XREC_ROUNDTRIP
360
282
  0
DICTIONARY
  5
283
330
140
100
AcDbDictionary
280
     1
281
     1
  3
ACAD_XREC_ROUNDTRIP
360
284
  0
DICTIONARY
  5
285
330
13D
100
AcDbDictionary
280
     1
281
     1
  3
ACAD_XREC_ROUNDTRIP
360
286
  0
DICTIONARY
  5
287
330
13E
100
AcDbDictionary
280
     1
281
     1
  3
ACAD_XREC_ROUNDTRIP
360
288
  0
DICTIONARY
  5
289
330
139
100
AcDbDictionary
280
     1
281
     1
  3
ACAD_XREC_ROUNDTRIP
360
28A
  0
DICTIONARY
  5
28B
330
133
100
AcDbDictionary
280
     1
281
     1
  3
ACAD_XREC_ROUNDTRIP
360
28C
  0
DICTIONARY
  5
28D
330
13F
100
AcDbDictionary
280
     1
281
     1
  3
ACAD_XREC_ROUNDTRIP
360
28E
  0
XRECORD
  5
252
102
{ACAD_REACTORS
330
251
102
}
330
251
100
AcDbXrecord
280
     1
102
DISPLAYNAME
  1
Metric50
102
FLAGS
 90
        0
  0
XRECORD
  5
250
102
{ACAD_REACTORS
330
24F
102
}
330
24F
100
AcDbXrecord
280
     1
102
DISPLAYNAME
  1
Metric50
102
FLAGS
 90
        0
  0
XRECORD
  5
260
102
{ACAD_REACTORS
330
25F
102
}
330
25F
100
AcDbXrecord
280
     1
102
RTVSPost2010Prop28
280
     1
102
RTVSPost2010PropOp28
 70
     1
102
RTVSPost2010Prop29
280
     1
102
RTVSPost2010PropOp29
 70
     1
102
RTVSPost2010Prop30
280
     0
102
RTVSPost2010PropOp30
 70
     1
102
RTVSPost2010Prop31
280
     0
102
RTVSPost2010PropOp31
 70
     1
102
RTVSPost2010Prop32
280
     0
102
RTVSPost2010PropOp32
 70
     1
102
RTVSPost2010Prop33
280
     0
102
RTVSPost2010PropOp33
 70
     1
102
RTVSPost2010Prop34
280
     0
102
RTVSPost2010PropOp34
 70
     1
102
RTVSPost2010Prop35
280
     0
102
RTVSPost2010PropOp35
 70
     1
102
RTVSPost2010Prop36
280
     0
102
RTVSPost2010PropOp36
 70
     1
102
RTVSPost2010Prop37
 90
       50
102
RTVSPost2010PropOp37
 70
     1
102
RTVSPost2010Prop38
140
0.0
102
RTVSPost2010PropOp38
 70
     1
102
RTVSPost2010Prop39
140
1.0
102
RTVSPost2010PropOp39
 70
     1
102
RTVSPost2010Prop40
 90
        0
102
RTVSPost2010PropOp40
 70
     1
102
RTVSPost2010Prop41ColorIndex
 90
       18
102
RTVSPost2010Prop41ColorRGB
 90
        0
102
RTVSPost2010PropOp41
 70
     1
102
RTVSPost2010Prop42
 90
       50
102
RTVSPost2010PropOp42
 70
     1
102
RTVSPost2010Prop43
 90
        3
102
RTVSPost2010PropOp43
 70
     1
102
RTVSPost2010Prop44ColorIndex
 90
        5
102
RTVSPost2010Prop44ColorRGB
 90
      255
102
RTVSPost2010PropOp44
 70
     1
102
RTVSPost2010Prop45
280
     0
102
RTVSPost2010PropOp45
 70
     1
102
RTVSPost2010Prop46
 90
       50
102
RTVSPost2010PropOp46
 70
     1
102
RTVSPost2010Prop47
 90
       50
102
RTVSPost2010PropOp47
 70
     1
102
RTVSPost2010Prop48
 90
       50
102
RTVSPost2010PropOp48
 70
     1
102
RTVSPost2010Prop49
280
     0
102
RTVSPost2010PropOp49
 70
     1
102
RTVSPost2010Prop50
 90
       50
102
RTVSPost2010PropOp50
 70
     1
102
RTVSPost2010Prop51ColorIndex
 90
      256
102
RTVSPost2010Prop51ColorRGB
 90
-16777216
102
RTVSPost2010PropOp51
 70
     0
102
RTVSPost2010Prop52
140
1.0
102
RTVSPost2010PropOp52
 70
     0
102
RTVSPost2010Prop53
 90
        2
102
RTVSPost2010PropOp53
 70
     1
102
RTVSPost2010Prop54
  1
strokes_ogs.tif
102
RTVSPost2010PropOp54
 70
     1
102
RTVSPost2010Prop55
280
     0
102
RTVSPost2010PropOp55
 70
     1
102
RTVSPost2010Prop56
140
1.0
102
RTVSPost2010PropOp56
 70
     1
102
RTVSPost2010Prop57
140
1.0
102
RTVSPost2010PropOp57
 70
     1
  0
XRECORD
  5
262
102
{ACAD_REACTORS
330
261
102
}
330
261
100
AcDbXrecord
280
     1
102
RTVSPost2010Prop28
280
     0
102
RTVSPost2010PropOp28
 70
     1
102
RTVSPost2010Prop29
280
     1
102
RTVSPost2010PropOp29
 70
     1
102
RTVSPost2010Prop30
280
     1
102
RTVSPost2010PropOp30
 70
     1
102
RTVSPost2010Prop31
280
     0
102
RTVSPost2010PropOp31
 70
     1
102
RTVSPost2010Prop32
280
     0
102
RTVSPost2010PropOp32
 70
     1
102
RTVSPost2010Prop33
280
     0
102
RTVSPost2010PropOp33
 70
     1
102
RTVSPost2010Prop34
280
     0
102
RTVSPost2010PropOp34
 70
     1
102
RTVSPost2010Prop35
280
     0
102
RTVSPost2010PropOp35
 70
     1
102
RTVSPost2010Prop36
280
     0
102
RTVSPost2010PropOp36
 70
     1
102
RTVSPost2010Prop37
 90
       50
102
RTVSPost2010PropOp37
 70
     1
102
RTVSPost2010Prop38
140
0.0
102
RTVSPost2010PropOp38
 70
     1
102
RTVSPost2010Prop39
140
1.0
102
RTVSPost2010PropOp39
 70
     1
102
RTVSPost2010Prop40
 90
        0
102
RTVSPost2010PropOp40
 70
     1
102
RTVSPost2010Prop41ColorIndex
 90
       18
102
RTVSPost2010Prop41ColorRGB
 90
        0
102
RTVSPost2010PropOp41
 70
     1
102
RTVSPost2010Prop42
 90
       50
102
RTVSPost2010PropOp42
 70
     1
102
RTVSPost2010Prop43
 90
        3
102
RTVSPost2010PropOp43
 70
     1
102
RTVSPost2010Prop44ColorIndex
 90
        5
102
RTVSPost2010Prop44ColorRGB
 90
      255
102
RTVSPost2010PropOp44
 70
     1
102
RTVSPost2010Prop45
280
     0
102
RTVSPost2010PropOp45
 70
     1
102
RTVSPost2010Prop46
 90
       50
102
RTVSPost2010PropOp46
 70
     1
102
RTVSPost2010Prop47
 90
       50
102
RTVSPost2010PropOp47
 70
     1
102
RTVSPost2010Prop48
 90
       50
102
RTVSPost2010PropOp48
 70
     1
102
RTVSPost2010Prop49
280
     0
102
RTVSPost2010PropOp49
 70
     1
102
RTVSPost2010Prop50
 90
       50
102
RTVSPost2010PropOp50
 70
     1
102
RTVSPost2010Prop51ColorIndex
 90
      256
102
RTVSPost2010Prop51ColorRGB
 90
-16777216
102
RTVSPost2010PropOp51
 70
     0
102
RTVSPost2010Prop52
140
1.0
102
RTVSPost2010PropOp52
 70
     0
102
RTVSPost2010Prop53
 90
        2
102
RTVSPost2010PropOp53
 70
     1
102
RTVSPost2010Prop54
  1
strokes_ogs.tif
102
RTVSPost2010PropOp54
 70
     1
102
RTVSPost2010Prop55
280
     0
102
RTVSPost2010PropOp55
 70
     1
102
RTVSPost2010Prop56
140
1.0
102
RTVSPost2010PropOp56
 70
     1
102
RTVSPost2010Prop57
140
1.0
102
RTVSPost2010PropOp57
 70
     1
  0
XRECORD
  5
264
102
{ACAD_REACTORS
330
263
102
}
330
263
100
AcDbXrecord
280
     1
102
RTVSPost2010Prop28
280
     0
102
RTVSPost2010PropOp28
 70
     1
102
RTVSPost2010Prop29
280
     1
102
RTVSPost2010PropOp29
 70
     1
102
RTVSPost2010Prop30
280
     1
102
RTVSPost2010PropOp30
 70
     1
102
RTVSPost2010Prop31
280
     0
102
RTVSPost2010PropOp31
 70
     1
102
RTVSPost2010Prop32
280
     0
102
RTVSPost2010PropOp32
 70
     1
102
RTVSPost2010Prop33
280
     0
102
RTVSPost2010PropOp33
 70
     1
102
RTVSPost2010Prop34
280
     0
102
RTVSPost2010PropOp34
 70
     1
102
RTVSPost2010Prop35
280
     0
102
RTVSPost2010PropOp35
 70
     1
102
RTVSPost2010Prop36
280
     0
102
RTVSPost2010PropOp36
 70
     1
102
RTVSPost2010Prop37
 90
       50
102
RTVSPost2010PropOp37
 70
     1
102
RTVSPost2010Prop38
140
0.0
102
RTVSPost2010PropOp38
 70
     1
102
RTVSPost2010Prop39
140
1.0
102
RTVSPost2010PropOp39
 70
     1
102
RTVSPost2010Prop40
 90
        0
102
RTVSPost2010PropOp40
 70
     1
102
RTVSPost2010Prop41ColorIndex
 90
       18
102
RTVSPost2010Prop41ColorRGB
 90
        0
102
RTVSPost2010PropOp41
 70
     1
102
RTVSPost2010Prop42
 90
       50
102
RTVSPost2010PropOp42
 70
     1
102
RTVSPost2010Prop43
 90
        3
102
RTVSPost2010PropOp43
 70
     1
102
RTVSPost2010Prop44ColorIndex
 90
        5
102
RTVSPost2010Prop44ColorRGB
 90
      255
102
RTVSPost2010PropOp44
 70
     1
102
RTVSPost2010Prop45
280
     0
102
RTVSPost2010PropOp45
 70
     1
102
RTVSPost2010Prop46
 90
       50
102
RTVSPost2010PropOp46
 70
     1
102
RTVSPost2010Prop47
 90
       50
102
RTVSPost2010PropOp47
 70
     1
102
RTVSPost2010Prop48
 90
       50
102
RTVSPost2010PropOp48
 70
     1
102
RTVSPost2010Prop49
280
     0
102
RTVSPost2010PropOp49
 70
     1
102
RTVSPost2010Prop50
 90
       50
102
RTVSPost2010PropOp50
 70
     1
102
RTVSPost2010Prop51ColorIndex
 90
      256
102
RTVSPost2010Prop51ColorRGB
 90
-16777216
102
RTVSPost2010PropOp51
 70
     0
102
RTVSPost2010Prop52
140
1.0
102
RTVSPost2010PropOp52
 70
     0
102
RTVSPost2010Prop53
 90
        2
102
RTVSPost2010PropOp53
 70
     1
102
RTVSPost2010Prop54
  1
strokes_ogs.tif
102
RTVSPost2010PropOp54
 70
     1
102
RTVSPost2010Prop55
280
     0
102
RTVSPost2010PropOp55
 70
     1
102
RTVSPost2010Prop56
140
1.0
102
RTVSPost2010PropOp56
 70
     1
102
RTVSPost2010Prop57
140
1.0
102
RTVSPost2010PropOp57
 70
     1
  0
XRECORD
  5
266
102
{ACAD_REACTORS
330
265
102
}
330
265
100
AcDbXrecord
280
     1
102
RTVSPost2010Prop28
280
     0
102
RTVSPost2010PropOp28
 70
     1
102
RTVSPost2010Prop29
280
     1
102
RTVSPost2010PropOp29
 70
     1
102
RTVSPost2010Prop30
280
     1
102
RTVSPost2010PropOp30
 70
     1
102
RTVSPost2010Prop31
280
     0
102
RTVSPost2010PropOp31
 70
     1
102
RTVSPost2010Prop32
280
     0
102
RTVSPost2010PropOp32
 70
     1
102
RTVSPost2010Prop33
280
     0
102
RTVSPost2010PropOp33
 70
     1
102
RTVSPost2010Prop34
280
     0
102
RTVSPost2010PropOp34
 70
     1
102
RTVSPost2010Prop35
280
     0
102
RTVSPost2010PropOp35
 70
     1
102
RTVSPost2010Prop36
280
     0
102
RTVSPost2010PropOp36
 70
     1
102
RTVSPost2010Prop37
 90
       50
102
RTVSPost2010PropOp37
 70
     1
102
RTVSPost2010Prop38
140
0.0
102
RTVSPost2010PropOp38
 70
     1
102
RTVSPost2010Prop39
140
1.0
102
RTVSPost2010PropOp39
 70
     1
102
RTVSPost2010Prop40
 90
        0
102
RTVSPost2010PropOp40
 70
     1
102
RTVSPost2010Prop41ColorIndex
 90
       18
102
RTVSPost2010Prop41ColorRGB
 90
        0
102
RTVSPost2010PropOp41
 70
     1
102
RTVSPost2010Prop42
 90
       50
102
RTVSPost2010PropOp42
 70
     1
102
RTVSPost2010Prop43
 90
        3
102
RTVSPost2010PropOp43
 70
     1
102
RTVSPost2010Prop44ColorIndex
 90
        5
102
RTVSPost2010Prop44ColorRGB
 90
      255
102
RTVSPost2010PropOp44
 70
     1
102
RTVSPost2010Prop45
280
     0
102
RTVSPost2010PropOp45
 70
     1
102
RTVSPost2010Prop46
 90
       50
102
RTVSPost2010PropOp46
 70
     1
102
RTVSPost2010Prop47
 90
       50
102
RTVSPost2010PropOp47
 70
     1
102
RTVSPost2010Prop48
 90
       50
102
RTVSPost2010PropOp48
 70
     1
102
RTVSPost2010Prop49
280
     0
102
RTVSPost2010PropOp49
 70
     1
102
RTVSPost2010Prop50
 90
       50
102
RTVSPost2010PropOp50
 70
     1
102
RTVSPost2010Prop51ColorIndex
 90
      256
102
RTVSPost2010Prop51ColorRGB
 90
-16777216
102
RTVSPost2010PropOp51
 70
     0
102
RTVSPost2010Prop52
140
1.0
102
RTVSPost2010PropOp52
 70
     0
102
RTVSPost2010Prop53
 90
        2
102
RTVSPost2010PropOp53
 70
     1
102
RTVSPost2010Prop54
  1
strokes_ogs.tif
102
RTVSPost2010PropOp54
 70
     1
102
RTVSPost2010Prop55
280
     0
102
RTVSPost2010PropOp55
 70
     1
102
RTVSPost2010Prop56
140
1.0
102
RTVSPost2010PropOp56
 70
     1
102
RTVSPost2010Prop57
140
1.0
102
RTVSPost2010PropOp57
 70
     1
  0
XRECORD
  5
268
102
{ACAD_REACTORS
330
267
102
}
330
267
100
AcDbXrecord
280
     1
102
RTVSPost2010Prop28
280
     0
102
RTVSPost2010PropOp28
 70
     1
102
RTVSPost2010Prop29
280
     1
102
RTVSPost2010PropOp29
 70
     1
102
RTVSPost2010Prop30
280
     1
102
RTVSPost2010PropOp30
 70
     1
102
RTVSPost2010Prop31
280
     0
102
RTVSPost2010PropOp31
 70
     1
102
RTVSPost2010Prop32
280
     0
102
RTVSPost2010PropOp32
 70
     1
102
RTVSPost2010Prop33
280
     0
102
RTVSPost2010PropOp33
 70
     1
102
RTVSPost2010Prop34
280
     0
102
RTVSPost2010PropOp34
 70
     1
102
RTVSPost2010Prop35
280
     0
102
RTVSPost2010PropOp35
 70
     1
102
RTVSPost2010Prop36
280
     0
102
RTVSPost2010PropOp36
 70
     1
102
RTVSPost2010Prop37
 90
       50
102
RTVSPost2010PropOp37
 70
     1
102
RTVSPost2010Prop38
140
0.0
102
RTVSPost2010PropOp38
 70
     1
102
RTVSPost2010Prop39
140
1.0
102
RTVSPost2010PropOp39
 70
     1
102
RTVSPost2010Prop40
 90
        0
102
RTVSPost2010PropOp40
 70
     1
102
RTVSPost2010Prop41ColorIndex
 90
       18
102
RTVSPost2010Prop41ColorRGB
 90
        0
102
RTVSPost2010PropOp41
 70
     1
102
RTVSPost2010Prop42
 90
       50
102
RTVSPost2010PropOp42
 70
     1
102
RTVSPost2010Prop43
 90
        3
102
RTVSPost2010PropOp43
 70
     1
102
RTVSPost2010Prop44ColorIndex
 90
        5
102
RTVSPost2010Prop44ColorRGB
 90
      255
102
RTVSPost2010PropOp44
 70
     1
102
RTVSPost2010Prop45
280
     0
102
RTVSPost2010PropOp45
 70
     1
102
RTVSPost2010Prop46
 90
       50
102
RTVSPost2010PropOp46
 70
     1
102
RTVSPost2010Prop47
 90
       50
102
RTVSPost2010PropOp47
 70
     1
102
RTVSPost2010Prop48
 90
       50
102
RTVSPost2010PropOp48
 70
     1
102
RTVSPost2010Prop49
280
     0
102
RTVSPost2010PropOp49
 70
     1
102
RTVSPost2010Prop50
 90
       50
102
RTVSPost2010PropOp50
 70
     1
102
RTVSPost2010Prop51ColorIndex
 90
      256
102
RTVSPost2010Prop51ColorRGB
 90
-16777216
102
RTVSPost2010PropOp51
 70
     0
102
RTVSPost2010Prop52
140
1.0
102
RTVSPost2010PropOp52
 70
     0
102
RTVSPost2010Prop53
 90
        2
102
RTVSPost2010PropOp53
 70
     1
102
RTVSPost2010Prop54
  1
strokes_ogs.tif
102
RTVSPost2010PropOp54
 70
     1
102
RTVSPost2010Prop55
280
     0
102
RTVSPost2010PropOp55
 70
     1
102
RTVSPost2010Prop56
140
1.0
102
RTVSPost2010PropOp56
 70
     1
102
RTVSPost2010Prop57
140
1.0
102
RTVSPost2010PropOp57
 70
     1
  0
XRECORD
  5
26A
102
{ACAD_REACTORS
330
269
102
}
330
269
100
AcDbXrecord
280
     1
102
RTVSPost2010Prop28
280
     0
102
RTVSPost2010PropOp28
 70
     1
102
RTVSPost2010Prop29
280
     1
102
RTVSPost2010PropOp29
 70
     1
102
RTVSPost2010Prop30
280
     1
102
RTVSPost2010PropOp30
 70
     1
102
RTVSPost2010Prop31
280
     0
102
RTVSPost2010PropOp31
 70
     1
102
RTVSPost2010Prop32
280
     0
102
RTVSPost2010PropOp32
 70
     1
102
RTVSPost2010Prop33
280
     0
102
RTVSPost2010PropOp33
 70
     1
102
RTVSPost2010Prop34
280
     0
102
RTVSPost2010PropOp34
 70
     1
102
RTVSPost2010Prop35
280
     0
102
RTVSPost2010PropOp35
 70
     1
102
RTVSPost2010Prop36
280
     0
102
RTVSPost2010PropOp36
 70
     1
102
RTVSPost2010Prop37
 90
       50
102
RTVSPost2010PropOp37
 70
     1
102
RTVSPost2010Prop38
140
0.0
102
RTVSPost2010PropOp38
 70
     1
102
RTVSPost2010Prop39
140
1.0
102
RTVSPost2010PropOp39
 70
     1
102
RTVSPost2010Prop40
 90
        0
102
RTVSPost2010PropOp40
 70
     1
102
RTVSPost2010Prop41ColorIndex
 90
       18
102
RTVSPost2010Prop41ColorRGB
 90
        0
102
RTVSPost2010PropOp41
 70
     1
102
RTVSPost2010Prop42
 90
       50
102
RTVSPost2010PropOp42
 70
     1
102
RTVSPost2010Prop43
 90
        3
102
RTVSPost2010PropOp43
 70
     1
102
RTVSPost2010Prop44ColorIndex
 90
        5
102
RTVSPost2010Prop44ColorRGB
 90
      255
102
RTVSPost2010PropOp44
 70
     1
102
RTVSPost2010Prop45
280
     0
102
RTVSPost2010PropOp45
 70
     1
102
RTVSPost2010Prop46
 90
       50
102
RTVSPost2010PropOp46
 70
     1
102
RTVSPost2010Prop47
 90
       50
102
RTVSPost2010PropOp47
 70
     1
102
RTVSPost2010Prop48
 90
       50
102
RTVSPost2010PropOp48
 70
     1
102
RTVSPost2010Prop49
280
     0
102
RTVSPost2010PropOp49
 70
     1
102
RTVSPost2010Prop50
 90
       50
102
RTVSPost2010PropOp50
 70
     1
102
RTVSPost2010Prop51ColorIndex
 90
      256
102
RTVSPost2010Prop51ColorRGB
 90
-16777216
102
RTVSPost2010PropOp51
 70
     0
102
RTVSPost2010Prop52
140
1.0
102
RTVSPost2010PropOp52
 70
     0
102
RTVSPost2010Prop53
 90
        2
102
RTVSPost2010PropOp53
 70
     1
102
RTVSPost2010Prop54
  1
strokes_ogs.tif
102
RTVSPost2010PropOp54
 70
     1
102
RTVSPost2010Prop55
280
     0
102
RTVSPost2010PropOp55
 70
     1
102
RTVSPost2010Prop56
140
1.0
102
RTVSPost2010PropOp56
 70
     1
102
RTVSPost2010Prop57
140
1.0
102
RTVSPost2010PropOp57
 70
     1
  0
XRECORD
  5
26C
102
{ACAD_REACTORS
330
26B
102
}
330
26B
100
AcDbXrecord
280
     1
102
RTVSPost2010Prop28
280
     0
102
RTVSPost2010PropOp28
 70
     1
102
RTVSPost2010Prop29
280
     1
102
RTVSPost2010PropOp29
 70
     1
102
RTVSPost2010Prop30
280
     1
102
RTVSPost2010PropOp30
 70
     1
102
RTVSPost2010Prop31
280
     0
102
RTVSPost2010PropOp31
 70
     1
102
RTVSPost2010Prop32
280
     0
102
RTVSPost2010PropOp32
 70
     1
102
RTVSPost2010Prop33
280
     0
102
RTVSPost2010PropOp33
 70
     1
102
RTVSPost2010Prop34
280
     0
102
RTVSPost2010PropOp34
 70
     1
102
RTVSPost2010Prop35
280
     0
102
RTVSPost2010PropOp35
 70
     1
102
RTVSPost2010Prop36
280
     0
102
RTVSPost2010PropOp36
 70
     1
102
RTVSPost2010Prop37
 90
       50
102
RTVSPost2010PropOp37
 70
     0
102
RTVSPost2010Prop38
140
0.0
102
RTVSPost2010PropOp38
 70
     0
102
RTVSPost2010Prop39
140
1.0
102
RTVSPost2010PropOp39
 70
     0
102
RTVSPost2010Prop40
 90
        0
102
RTVSPost2010PropOp40
 70
     0
102
RTVSPost2010Prop41ColorIndex
 90
       18
102
RTVSPost2010Prop41ColorRGB
 90
        0
102
RTVSPost2010PropOp41
 70
     0
102
RTVSPost2010Prop42
 90
       50
102
RTVSPost2010PropOp42
 70
     0
102
RTVSPost2010Prop43
 90
        3
102
RTVSPost2010PropOp43
 70
     0
102
RTVSPost2010Prop44ColorIndex
 90
        5
102
RTVSPost2010Prop44ColorRGB
 90
      255
102
RTVSPost2010PropOp44
 70
     0
102
RTVSPost2010Prop45
280
     0
102
RTVSPost2010PropOp45
 70
     1
102
RTVSPost2010Prop46
 90
       50
102
RTVSPost2010PropOp46
 70
     0
102
RTVSPost2010Prop47
 90
       50
102
RTVSPost2010PropOp47
 70
     0
102
RTVSPost2010Prop48
 90
       50
102
RTVSPost2010PropOp48
 70
     0
102
RTVSPost2010Prop49
280
     0
102
RTVSPost2010PropOp49
 70
     1
102
RTVSPost2010Prop50
 90
       50
102
RTVSPost2010PropOp50
 70
     0
102
RTVSPost2010Prop51ColorIndex
 90
      256
102
RTVSPost2010Prop51ColorRGB
 90
-16777216
102
RTVSPost2010PropOp51
 70
     0
102
RTVSPost2010Prop52
140
1.0
102
RTVSPost2010PropOp52
 70
     0
102
RTVSPost2010Prop53
 90
        2
102
RTVSPost2010PropOp53
 70
     0
102
RTVSPost2010Prop54
  1
strokes_ogs.tif
102
RTVSPost2010PropOp54
 70
     0
102
RTVSPost2010Prop55
280
     0
102
RTVSPost2010PropOp55
 70
     1
102
RTVSPost2010Prop56
140
1.0
102
RTVSPost2010PropOp56
 70
     0
102
RTVSPost2010Prop57
140
1.0
102
RTVSPost2010PropOp57
 70
     0
  0
XRECORD
  5
26E
102
{ACAD_REACTORS
330
26D
102
}
330
26D
100
AcDbXrecord
280
     1
102
RTVSPost2010Prop28
280
     0
102
RTVSPost2010PropOp28
 70
     1
102
RTVSPost2010Prop29
280
     1
102
RTVSPost2010PropOp29
 70
     1
102
RTVSPost2010Prop30
280
     1
102
RTVSPost2010PropOp30
 70
     1
102
RTVSPost2010Prop31
280
     0
102
RTVSPost2010PropOp31
 70
     1
102
RTVSPost2010Prop32
280
     0
102
RTVSPost2010PropOp32
 70
     1
102
RTVSPost2010Prop33
280
     0
102
RTVSPost2010PropOp33
 70
     1
102
RTVSPost2010Prop34
280
     0
102
RTVSPost2010PropOp34
 70
     1
102
RTVSPost2010Prop35
280
     0
102
RTVSPost2010PropOp35
 70
     1
102
RTVSPost2010Prop36
280
     0
102
RTVSPost2010PropOp36
 70
     1
102
RTVSPost2010Prop37
 90
       50
102
RTVSPost2010PropOp37
 70
     1
102
RTVSPost2010Prop38
140
0.0
102
RTVSPost2010PropOp38
 70
     1
102
RTVSPost2010Prop39
140
1.0
102
RTVSPost2010PropOp39
 70
     1
102
RTVSPost2010Prop40
 90
        0
102
RTVSPost2010PropOp40
 70
     1
102
RTVSPost2010Prop41ColorIndex
 90
       18
102
RTVSPost2010Prop41ColorRGB
 90
        0
102
RTVSPost2010PropOp41
 70
     1
102
RTVSPost2010Prop42
 90
       50
102
RTVSPost2010PropOp42
 70
     1
102
RTVSPost2010Prop43
 90
        3
102
RTVSPost2010PropOp43
 70
     1
102
RTVSPost2010Prop44ColorIndex
 90
        5
102
RTVSPost2010Prop44ColorRGB
 90
      255
102
RTVSPost2010PropOp44
 70
     1
102
RTVSPost2010Prop45
280
     0
102
RTVSPost2010PropOp45
 70
     1
102
RTVSPost2010Prop46
 90
       50
102
RTVSPost2010PropOp46
 70
     1
102
RTVSPost2010Prop47
 90
       50
102
RTVSPost2010PropOp47
 70
     1
102
RTVSPost2010Prop48
 90
       50
102
RTVSPost2010PropOp48
 70
     1
102
RTVSPost2010Prop49
280
     0
102
RTVSPost2010PropOp49
 70
     1
102
RTVSPost2010Prop50
 90
       50
102
RTVSPost2010PropOp50
 70
     1
102
RTVSPost2010Prop51ColorIndex
 90
      256
102
RTVSPost2010Prop51ColorRGB
 90
-16777216
102
RTVSPost2010PropOp51
 70
     0
102
RTVSPost2010Prop52
140
1.0
102
RTVSPost2010PropOp52
 70
     0
102
RTVSPost2010Prop53
 90
        2
102
RTVSPost2010PropOp53
 70
     1
102
RTVSPost2010Prop54
  1
strokes_ogs.tif
102
RTVSPost2010PropOp54
 70
     1
102
RTVSPost2010Prop55
280
     0
102
RTVSPost2010PropOp55
 70
     1
102
RTVSPost2010Prop56
140
1.0
102
RTVSPost2010PropOp56
 70
     1
102
RTVSPost2010Prop57
140
1.0
102
RTVSPost2010PropOp57
 70
     1
  0
XRECORD
  5
270
102
{ACAD_REACTORS
330
26F
102
}
330
26F
100
AcDbXrecord
280
     1
102
RTVSPost2010Prop28
280
     0
102
RTVSPost2010PropOp28
 70
     1
102
RTVSPost2010Prop29
280
     1
102
RTVSPost2010PropOp29
 70
     1
102
RTVSPost2010Prop30
280
     1
102
RTVSPost2010PropOp30
 70
     1
102
RTVSPost2010Prop31
280
     0
102
RTVSPost2010PropOp31
 70
     1
102
RTVSPost2010Prop32
280
     0
102
RTVSPost2010PropOp32
 70
     1
102
RTVSPost2010Prop33
280
     0
102
RTVSPost2010PropOp33
 70
     1
102
RTVSPost2010Prop34
280
     0
102
RTVSPost2010PropOp34
 70
     1
102
RTVSPost2010Prop35
280
     0
102
RTVSPost2010PropOp35
 70
     1
102
RTVSPost2010Prop36
280
     0
102
RTVSPost2010PropOp36
 70
     1
102
RTVSPost2010Prop37
 90
       50
102
RTVSPost2010PropOp37
 70
     1
102
RTVSPost2010Prop38
140
0.0
102
RTVSPost2010PropOp38
 70
     1
102
RTVSPost2010Prop39
140
1.0
102
RTVSPost2010PropOp39
 70
     1
102
RTVSPost2010Prop40
 90
        0
102
RTVSPost2010PropOp40
 70
     1
102
RTVSPost2010Prop41ColorIndex
 90
       18
102
RTVSPost2010Prop41ColorRGB
 90
        0
102
RTVSPost2010PropOp41
 70
     1
102
RTVSPost2010Prop42
 90
       50
102
RTVSPost2010PropOp42
 70
     1
102
RTVSPost2010Prop43
 90
        3
102
RTVSPost2010PropOp43
 70
     1
102
RTVSPost2010Prop44ColorIndex
 90
        5
102
RTVSPost2010Prop44ColorRGB
 90
      255
102
RTVSPost2010PropOp44
 70
     1
102
RTVSPost2010Prop45
280
     0
102
RTVSPost2010PropOp45
 70
     1
102
RTVSPost2010Prop46
 90
       50
102
RTVSPost2010PropOp46
 70
     1
102
RTVSPost2010Prop47
 90
       50
102
RTVSPost2010PropOp47
 70
     1
102
RTVSPost2010Prop48
 90
       50
102
RTVSPost2010PropOp48
 70
     1
102
RTVSPost2010Prop49
280
     0
102
RTVSPost2010PropOp49
 70
     1
102
RTVSPost2010Prop50
 90
       50
102
RTVSPost2010PropOp50
 70
     1
102
RTVSPost2010Prop51ColorIndex
 90
      256
102
RTVSPost2010Prop51ColorRGB
 90
-16777216
102
RTVSPost2010PropOp51
 70
     0
102
RTVSPost2010Prop52
140
1.0
102
RTVSPost2010PropOp52
 70
     0
102
RTVSPost2010Prop53
 90
        2
102
RTVSPost2010PropOp53
 70
     1
102
RTVSPost2010Prop54
  1
strokes_ogs.tif
102
RTVSPost2010PropOp54
 70
     1
102
RTVSPost2010Prop55
280
     0
102
RTVSPost2010PropOp55
 70
     1
102
RTVSPost2010Prop56
140
1.0
102
RTVSPost2010PropOp56
 70
     1
102
RTVSPost2010Prop57
140
1.0
102
RTVSPost2010PropOp57
 70
     1
  0
XRECORD
  5
272
102
{ACAD_REACTORS
330
271
102
}
330
271
100
AcDbXrecord
280
     1
102
RTVSPost2010Prop28
280
     0
102
RTVSPost2010PropOp28
 70
     1
102
RTVSPost2010Prop29
280
     1
102
RTVSPost2010PropOp29
 70
     1
102
RTVSPost2010Prop30
280
     1
102
RTVSPost2010PropOp30
 70
     1
102
RTVSPost2010Prop31
280
     0
102
RTVSPost2010PropOp31
 70
     1
102
RTVSPost2010Prop32
280
     0
102
RTVSPost2010PropOp32
 70
     1
102
RTVSPost2010Prop33
280
     0
102
RTVSPost2010PropOp33
 70
     1
102
RTVSPost2010Prop34
280
     0
102
RTVSPost2010PropOp34
 70
     1
102
RTVSPost2010Prop35
280
     0
102
RTVSPost2010PropOp35
 70
     1
102
RTVSPost2010Prop36
280
     0
102
RTVSPost2010PropOp36
 70
     1
102
RTVSPost2010Prop37
 90
       50
102
RTVSPost2010PropOp37
 70
     1
102
RTVSPost2010Prop38
140
0.0
102
RTVSPost2010PropOp38
 70
     1
102
RTVSPost2010Prop39
140
1.0
102
RTVSPost2010PropOp39
 70
     1
102
RTVSPost2010Prop40
 90
        0
102
RTVSPost2010PropOp40
 70
     1
102
RTVSPost2010Prop41ColorIndex
 90
       18
102
RTVSPost2010Prop41ColorRGB
 90
        0
102
RTVSPost2010PropOp41
 70
     1
102
RTVSPost2010Prop42
 90
       50
102
RTVSPost2010PropOp42
 70
     1
102
RTVSPost2010Prop43
 90
        3
102
RTVSPost2010PropOp43
 70
     1
102
RTVSPost2010Prop44ColorIndex
 90
        5
102
RTVSPost2010Prop44ColorRGB
 90
      255
102
RTVSPost2010PropOp44
 70
     1
102
RTVSPost2010Prop45
280
     0
102
RTVSPost2010PropOp45
 70
     1
102
RTVSPost2010Prop46
 90
       50
102
RTVSPost2010PropOp46
 70
     1
102
RTVSPost2010Prop47
 90
       50
102
RTVSPost2010PropOp47
 70
     1
102
RTVSPost2010Prop48
 90
       50
102
RTVSPost2010PropOp48
 70
     1
102
RTVSPost2010Prop49
280
     0
102
RTVSPost2010PropOp49
 70
     1
102
RTVSPost2010Prop50
 90
       50
102
RTVSPost2010PropOp50
 70
     1
102
RTVSPost2010Prop51ColorIndex
 90
      256
102
RTVSPost2010Prop51ColorRGB
 90
-16777216
102
RTVSPost2010PropOp51
 70
     0
102
RTVSPost2010Prop52
140
1.0
102
RTVSPost2010PropOp52
 70
     0
102
RTVSPost2010Prop53
 90
        2
102
RTVSPost2010PropOp53
 70
     1
102
RTVSPost2010Prop54
  1
strokes_ogs.tif
102
RTVSPost2010PropOp54
 70
     1
102
RTVSPost2010Prop55
280
     0
102
RTVSPost2010PropOp55
 70
     1
102
RTVSPost2010Prop56
140
1.0
102
RTVSPost2010PropOp56
 70
     1
102
RTVSPost2010Prop57
140
1.0
102
RTVSPost2010PropOp57
 70
     1
  0
XRECORD
  5
274
102
{ACAD_REACTORS
330
273
102
}
330
273
100
AcDbXrecord
280
     1
102
RTVSPost2010Prop28
280
     0
102
RTVSPost2010PropOp28
 70
     1
102
RTVSPost2010Prop29
280
     1
102
RTVSPost2010PropOp29
 70
     1
102
RTVSPost2010Prop30
280
     1
102
RTVSPost2010PropOp30
 70
     1
102
RTVSPost2010Prop31
280
     0
102
RTVSPost2010PropOp31
 70
     1
102
RTVSPost2010Prop32
280
     0
102
RTVSPost2010PropOp32
 70
     1
102
RTVSPost2010Prop33
280
     0
102
RTVSPost2010PropOp33
 70
     1
102
RTVSPost2010Prop34
280
     0
102
RTVSPost2010PropOp34
 70
     1
102
RTVSPost2010Prop35
280
     0
102
RTVSPost2010PropOp35
 70
     1
102
RTVSPost2010Prop36
280
     0
102
RTVSPost2010PropOp36
 70
     1
102
RTVSPost2010Prop37
 90
       50
102
RTVSPost2010PropOp37
 70
     1
102
RTVSPost2010Prop38
140
0.0
102
RTVSPost2010PropOp38
 70
     1
102
RTVSPost2010Prop39
140
1.0
102
RTVSPost2010PropOp39
 70
     1
102
RTVSPost2010Prop40
 90
        0
102
RTVSPost2010PropOp40
 70
     1
102
RTVSPost2010Prop41ColorIndex
 90
       18
102
RTVSPost2010Prop41ColorRGB
 90
        0
102
RTVSPost2010PropOp41
 70
     1
102
RTVSPost2010Prop42
 90
       50
102
RTVSPost2010PropOp42
 70
     1
102
RTVSPost2010Prop43
 90
        3
102
RTVSPost2010PropOp43
 70
     1
102
RTVSPost2010Prop44ColorIndex
 90
        5
102
RTVSPost2010Prop44ColorRGB
 90
      255
102
RTVSPost2010PropOp44
 70
     1
102
RTVSPost2010Prop45
280
     0
102
RTVSPost2010PropOp45
 70
     1
102
RTVSPost2010Prop46
 90
       50
102
RTVSPost2010PropOp46
 70
     1
102
RTVSPost2010Prop47
 90
       50
102
RTVSPost2010PropOp47
 70
     1
102
RTVSPost2010Prop48
 90
       50
102
RTVSPost2010PropOp48
 70
     1
102
RTVSPost2010Prop49
280
     0
102
RTVSPost2010PropOp49
 70
     1
102
RTVSPost2010Prop50
 90
       50
102
RTVSPost2010PropOp50
 70
     1
102
RTVSPost2010Prop51ColorIndex
 90
      256
102
RTVSPost2010Prop51ColorRGB
 90
-16777216
102
RTVSPost2010PropOp51
 70
     0
102
RTVSPost2010Prop52
140
1.0
102
RTVSPost2010PropOp52
 70
     0
102
RTVSPost2010Prop53
 90
        2
102
RTVSPost2010PropOp53
 70
     1
102
RTVSPost2010Prop54
  1
strokes_ogs.tif
102
RTVSPost2010PropOp54
 70
     1
102
RTVSPost2010Prop55
280
     0
102
RTVSPost2010PropOp55
 70
     1
102
RTVSPost2010Prop56
140
1.0
102
RTVSPost2010PropOp56
 70
     1
102
RTVSPost2010Prop57
140
1.0
102
RTVSPost2010PropOp57
 70
     1
  0
XRECORD
  5
276
102
{ACAD_REACTORS
330
275
102
}
330
275
100
AcDbXrecord
280
     1
102
RTVSPost2010Prop28
280
     0
102
RTVSPost2010PropOp28
 70
     1
102
RTVSPost2010Prop29
280
     1
102
RTVSPost2010PropOp29
 70
     1
102
RTVSPost2010Prop30
280
     1
102
RTVSPost2010PropOp30
 70
     1
102
RTVSPost2010Prop31
280
     0
102
RTVSPost2010PropOp31
 70
     1
102
RTVSPost2010Prop32
280
     0
102
RTVSPost2010PropOp32
 70
     1
102
RTVSPost2010Prop33
280
     0
102
RTVSPost2010PropOp33
 70
     1
102
RTVSPost2010Prop34
280
     0
102
RTVSPost2010PropOp34
 70
     1
102
RTVSPost2010Prop35
280
     0
102
RTVSPost2010PropOp35
 70
     1
102
RTVSPost2010Prop36
280
     0
102
RTVSPost2010PropOp36
 70
     1
102
RTVSPost2010Prop37
 90
       50
102
RTVSPost2010PropOp37
 70
     1
102
RTVSPost2010Prop38
140
0.0
102
RTVSPost2010PropOp38
 70
     1
102
RTVSPost2010Prop39
140
1.0
102
RTVSPost2010PropOp39
 70
     1
102
RTVSPost2010Prop40
 90
        0
102
RTVSPost2010PropOp40
 70
     1
102
RTVSPost2010Prop41ColorIndex
 90
       18
102
RTVSPost2010Prop41ColorRGB
 90
        0
102
RTVSPost2010PropOp41
 70
     1
102
RTVSPost2010Prop42
 90
       50
102
RTVSPost2010PropOp42
 70
     1
102
RTVSPost2010Prop43
 90
        3
102
RTVSPost2010PropOp43
 70
     1
102
RTVSPost2010Prop44ColorIndex
 90
        5
102
RTVSPost2010Prop44ColorRGB
 90
      255
102
RTVSPost2010PropOp44
 70
     1
102
RTVSPost2010Prop45
280
     0
102
RTVSPost2010PropOp45
 70
     1
102
RTVSPost2010Prop46
 90
       50
102
RTVSPost2010PropOp46
 70
     1
102
RTVSPost2010Prop47
 90
       50
102
RTVSPost2010PropOp47
 70
     1
102
RTVSPost2010Prop48
 90
       50
102
RTVSPost2010PropOp48
 70
     1
102
RTVSPost2010Prop49
280
     0
102
RTVSPost2010PropOp49
 70
     1
102
RTVSPost2010Prop50
 90
       50
102
RTVSPost2010PropOp50
 70
     1
102
RTVSPost2010Prop51ColorIndex
 90
      256
102
RTVSPost2010Prop51ColorRGB
 90
-16777216
102
RTVSPost2010PropOp51
 70
     0
102
RTVSPost2010Prop52
140
1.0
102
RTVSPost2010PropOp52
 70
     0
102
RTVSPost2010Prop53
 90
        2
102
RTVSPost2010PropOp53
 70
     1
102
RTVSPost2010Prop54
  1
strokes_ogs.tif
102
RTVSPost2010PropOp54
 70
     1
102
RTVSPost2010Prop55
280
     0
102
RTVSPost2010PropOp55
 70
     1
102
RTVSPost2010Prop56
140
1.0
102
RTVSPost2010PropOp56
 70
     1
102
RTVSPost2010Prop57
140
1.0
102
RTVSPost2010PropOp57
 70
     1
  0
XRECORD
  5
278
102
{ACAD_REACTORS
330
277
102
}
330
277
100
AcDbXrecord
280
     1
102
RTVSPost2010Prop28
280
     0
102
RTVSPost2010PropOp28
 70
     1
102
RTVSPost2010Prop29
280
     1
102
RTVSPost2010PropOp29
 70
     1
102
RTVSPost2010Prop30
280
     1
102
RTVSPost2010PropOp30
 70
     1
102
RTVSPost2010Prop31
280
     0
102
RTVSPost2010PropOp31
 70
     1
102
RTVSPost2010Prop32
280
     0
102
RTVSPost2010PropOp32
 70
     1
102
RTVSPost2010Prop33
280
     0
102
RTVSPost2010PropOp33
 70
     1
102
RTVSPost2010Prop34
280
     0
102
RTVSPost2010PropOp34
 70
     1
102
RTVSPost2010Prop35
280
     0
102
RTVSPost2010PropOp35
 70
     1
102
RTVSPost2010Prop36
280
     0
102
RTVSPost2010PropOp36
 70
     1
102
RTVSPost2010Prop37
 90
       50
102
RTVSPost2010PropOp37
 70
     1
102
RTVSPost2010Prop38
140
0.0
102
RTVSPost2010PropOp38
 70
     1
102
RTVSPost2010Prop39
140
1.0
102
RTVSPost2010PropOp39
 70
     1
102
RTVSPost2010Prop40
 90
        0
102
RTVSPost2010PropOp40
 70
     1
102
RTVSPost2010Prop41ColorIndex
 90
       18
102
RTVSPost2010Prop41ColorRGB
 90
        0
102
RTVSPost2010PropOp41
 70
     1
102
RTVSPost2010Prop42
 90
       50
102
RTVSPost2010PropOp42
 70
     1
102
RTVSPost2010Prop43
 90
        3
102
RTVSPost2010PropOp43
 70
     1
102
RTVSPost2010Prop44ColorIndex
 90
        5
102
RTVSPost2010Prop44ColorRGB
 90
      255
102
RTVSPost2010PropOp44
 70
     1
102
RTVSPost2010Prop45
280
     0
102
RTVSPost2010PropOp45
 70
     1
102
RTVSPost2010Prop46
 90
       50
102
RTVSPost2010PropOp46
 70
     1
102
RTVSPost2010Prop47
 90
       50
102
RTVSPost2010PropOp47
 70
     1
102
RTVSPost2010Prop48
 90
       50
102
RTVSPost2010PropOp48
 70
     1
102
RTVSPost2010Prop49
280
     0
102
RTVSPost2010PropOp49
 70
     1
102
RTVSPost2010Prop50
 90
       50
102
RTVSPost2010PropOp50
 70
     1
102
RTVSPost2010Prop51ColorIndex
 90
      256
102
RTVSPost2010Prop51ColorRGB
 90
-16777216
102
RTVSPost2010PropOp51
 70
     0
102
RTVSPost2010Prop52
140
1.0
102
RTVSPost2010PropOp52
 70
     0
102
RTVSPost2010Prop53
 90
        2
102
RTVSPost2010PropOp53
 70
     1
102
RTVSPost2010Prop54
  1
strokes_ogs.tif
102
RTVSPost2010PropOp54
 70
     1
102
RTVSPost2010Prop55
280
     0
102
RTVSPost2010PropOp55
 70
     1
102
RTVSPost2010Prop56
140
1.0
102
RTVSPost2010PropOp56
 70
     1
102
RTVSPost2010Prop57
140
1.0
102
RTVSPost2010PropOp57
 70
     1
  0
XRECORD
  5
27A
102
{ACAD_REACTORS
330
279
102
}
330
279
100
AcDbXrecord
280
     1
102
RTVSPost2010Prop28
280
     0
102
RTVSPost2010PropOp28
 70
     1
102
RTVSPost2010Prop29
280
     1
102
RTVSPost2010PropOp29
 70
     1
102
RTVSPost2010Prop30
280
     1
102
RTVSPost2010PropOp30
 70
     1
102
RTVSPost2010Prop31
280
     0
102
RTVSPost2010PropOp31
 70
     1
102
RTVSPost2010Prop32
280
     0
102
RTVSPost2010PropOp32
 70
     1
102
RTVSPost2010Prop33
280
     0
102
RTVSPost2010PropOp33
 70
     1
102
RTVSPost2010Prop34
280
     0
102
RTVSPost2010PropOp34
 70
     1
102
RTVSPost2010Prop35
280
     0
102
RTVSPost2010PropOp35
 70
     1
102
RTVSPost2010Prop36
280
     0
102
RTVSPost2010PropOp36
 70
     1
102
RTVSPost2010Prop37
 90
       50
102
RTVSPost2010PropOp37
 70
     0
102
RTVSPost2010Prop38
140
0.0
102
RTVSPost2010PropOp38
 70
     0
102
RTVSPost2010Prop39
140
1.0
102
RTVSPost2010PropOp39
 70
     0
102
RTVSPost2010Prop40
 90
        0
102
RTVSPost2010PropOp40
 70
     0
102
RTVSPost2010Prop41ColorIndex
 90
       18
102
RTVSPost2010Prop41ColorRGB
 90
        0
102
RTVSPost2010PropOp41
 70
     0
102
RTVSPost2010Prop42
 90
       50
102
RTVSPost2010PropOp42
 70
     0
102
RTVSPost2010Prop43
 90
        3
102
RTVSPost2010PropOp43
 70
     0
102
RTVSPost2010Prop44ColorIndex
 90
        5
102
RTVSPost2010Prop44ColorRGB
 90
      255
102
RTVSPost2010PropOp44
 70
     0
102
RTVSPost2010Prop45
280
     0
102
RTVSPost2010PropOp45
 70
     1
102
RTVSPost2010Prop46
 90
       50
102
RTVSPost2010PropOp46
 70
     0
102
RTVSPost2010Prop47
 90
       50
102
RTVSPost2010PropOp47
 70
     0
102
RTVSPost2010Prop48
 90
       50
102
RTVSPost2010PropOp48
 70
     0
102
RTVSPost2010Prop49
280
     0
102
RTVSPost2010PropOp49
 70
     1
102
RTVSPost2010Prop50
 90
       50
102
RTVSPost2010PropOp50
 70
     0
102
RTVSPost2010Prop51ColorIndex
 90
      256
102
RTVSPost2010Prop51ColorRGB
 90
-16777216
102
RTVSPost2010PropOp51
 70
     0
102
RTVSPost2010Prop52
140
1.0
102
RTVSPost2010PropOp52
 70
     0
102
RTVSPost2010Prop53
 90
        2
102
RTVSPost2010PropOp53
 70
     0
102
RTVSPost2010Prop54
  1
strokes_ogs.tif
102
RTVSPost2010PropOp54
 70
     0
102
RTVSPost2010Prop55
280
     0
102
RTVSPost2010PropOp55
 70
     1
102
RTVSPost2010Prop56
140
1.0
102
RTVSPost2010PropOp56
 70
     0
102
RTVSPost2010Prop57
140
1.0
102
RTVSPost2010PropOp57
 70
     0
  0
XRECORD
  5
27C
102
{ACAD_REACTORS
330
27B
102
}
330
27B
100
AcDbXrecord
280
     1
102
RTVSPost2010Prop28
280
     0
102
RTVSPost2010PropOp28
 70
     1
102
RTVSPost2010Prop29
280
     1
102
RTVSPost2010PropOp29
 70
     1
102
RTVSPost2010Prop30
280
     1
102
RTVSPost2010PropOp30
 70
     1
102
RTVSPost2010Prop31
280
     0
102
RTVSPost2010PropOp31
 70
     1
102
RTVSPost2010Prop32
280
     0
102
RTVSPost2010PropOp32
 70
     1
102
RTVSPost2010Prop33
280
     0
102
RTVSPost2010PropOp33
 70
     1
102
RTVSPost2010Prop34
280
     0
102
RTVSPost2010PropOp34
 70
     1
102
RTVSPost2010Prop35
280
     0
102
RTVSPost2010PropOp35
 70
     1
102
RTVSPost2010Prop36
280
     0
102
RTVSPost2010PropOp36
 70
     1
102
RTVSPost2010Prop37
 90
       50
102
RTVSPost2010PropOp37
 70
     1
102
RTVSPost2010Prop38
140
0.0
102
RTVSPost2010PropOp38
 70
     1
102
RTVSPost2010Prop39
140
1.0
102
RTVSPost2010PropOp39
 70
     1
102
RTVSPost2010Prop40
 90
        0
102
RTVSPost2010PropOp40
 70
     1
102
RTVSPost2010Prop41ColorIndex
 90
       18
102
RTVSPost2010Prop41ColorRGB
 90
        0
102
RTVSPost2010PropOp41
 70
     1
102
RTVSPost2010Prop42
 90
       50
102
RTVSPost2010PropOp42
 70
     1
102
RTVSPost2010Prop43
 90
        3
102
RTVSPost2010PropOp43
 70
     1
102
RTVSPost2010Prop44ColorIndex
 90
        5
102
RTVSPost2010Prop44ColorRGB
 90
      255
102
RTVSPost2010PropOp44
 70
     1
102
RTVSPost2010Prop45
280
     0
102
RTVSPost2010PropOp45
 70
     1
102
RTVSPost2010Prop46
 90
       50
102
RTVSPost2010PropOp46
 70
     1
102
RTVSPost2010Prop47
 90
       50
102
RTVSPost2010PropOp47
 70
     1
102
RTVSPost2010Prop48
 90
       50
102
RTVSPost2010PropOp48
 70
     1
102
RTVSPost2010Prop49
280
     0
102
RTVSPost2010PropOp49
 70
     1
102
RTVSPost2010Prop50
 90
       50
102
RTVSPost2010PropOp50
 70
     1
102
RTVSPost2010Prop51ColorIndex
 90
      256
102
RTVSPost2010Prop51ColorRGB
 90
-16777216
102
RTVSPost2010PropOp51
 70
     0
102
RTVSPost2010Prop52
140
1.0
102
RTVSPost2010PropOp52
 70
     0
102
RTVSPost2010Prop53
 90
        2
102
RTVSPost2010PropOp53
 70
     1
102
RTVSPost2010Prop54
  1
strokes_ogs.tif
102
RTVSPost2010PropOp54
 70
     1
102
RTVSPost2010Prop55
280
     0
102
RTVSPost2010PropOp55
 70
     1
102
RTVSPost2010Prop56
140
1.0
102
RTVSPost2010PropOp56
 70
     1
102
RTVSPost2010Prop57
140
1.0
102
RTVSPost2010PropOp57
 70
     1
  0
XRECORD
  5
27E
102
{ACAD_REACTORS
330
27D
102
}
330
27D
100
AcDbXrecord
280
     1
102
RTVSPost2010Prop28
280
     0
102
RTVSPost2010PropOp28
 70
     1
102
RTVSPost2010Prop29
280
     1
102
RTVSPost2010PropOp29
 70
     1
102
RTVSPost2010Prop30
280
     1
102
RTVSPost2010PropOp30
 70
     1
102
RTVSPost2010Prop31
280
     0
102
RTVSPost2010PropOp31
 70
     1
102
RTVSPost2010Prop32
280
     0
102
RTVSPost2010PropOp32
 70
     1
102
RTVSPost2010Prop33
280
     0
102
RTVSPost2010PropOp33
 70
     1
102
RTVSPost2010Prop34
280
     0
102
RTVSPost2010PropOp34
 70
     1
102
RTVSPost2010Prop35
280
     0
102
RTVSPost2010PropOp35
 70
     1
102
RTVSPost2010Prop36
280
     0
102
RTVSPost2010PropOp36
 70
     1
102
RTVSPost2010Prop37
 90
       50
102
RTVSPost2010PropOp37
 70
     0
102
RTVSPost2010Prop38
140
0.0
102
RTVSPost2010PropOp38
 70
     0
102
RTVSPost2010Prop39
140
1.0
102
RTVSPost2010PropOp39
 70
     0
102
RTVSPost2010Prop40
 90
        0
102
RTVSPost2010PropOp40
 70
     0
102
RTVSPost2010Prop41ColorIndex
 90
       18
102
RTVSPost2010Prop41ColorRGB
 90
        0
102
RTVSPost2010PropOp41
 70
     0
102
RTVSPost2010Prop42
 90
       50
102
RTVSPost2010PropOp42
 70
     0
102
RTVSPost2010Prop43
 90
        3
102
RTVSPost2010PropOp43
 70
     0
102
RTVSPost2010Prop44ColorIndex
 90
        5
102
RTVSPost2010Prop44ColorRGB
 90
      255
102
RTVSPost2010PropOp44
 70
     0
102
RTVSPost2010Prop45
280
     0
102
RTVSPost2010PropOp45
 70
     1
102
RTVSPost2010Prop46
 90
       50
102
RTVSPost2010PropOp46
 70
     0
102
RTVSPost2010Prop47
 90
       50
102
RTVSPost2010PropOp47
 70
     0
102
RTVSPost2010Prop48
 90
       50
102
RTVSPost2010PropOp48
 70
     0
102
RTVSPost2010Prop49
280
     0
102
RTVSPost2010PropOp49
 70
     1
102
RTVSPost2010Prop50
 90
       50
102
RTVSPost2010PropOp50
 70
     0
102
RTVSPost2010Prop51ColorIndex
 90
      256
102
RTVSPost2010Prop51ColorRGB
 90
-16777216
102
RTVSPost2010PropOp51
 70
     0
102
RTVSPost2010Prop52
140
1.0
102
RTVSPost2010PropOp52
 70
     0
102
RTVSPost2010Prop53
 90
        2
102
RTVSPost2010PropOp53
 70
     0
102
RTVSPost2010Prop54
  1
strokes_ogs.tif
102
RTVSPost2010PropOp54
 70
     0
102
RTVSPost2010Prop55
280
     0
102
RTVSPost2010PropOp55
 70
     1
102
RTVSPost2010Prop56
140
1.0
102
RTVSPost2010PropOp56
 70
     0
102
RTVSPost2010Prop57
140
1.0
102
RTVSPost2010PropOp57
 70
     0
  0
XRECORD
  5
280
102
{ACAD_REACTORS
330
27F
102
}
330
27F
100
AcDbXrecord
280
     1
102
RTVSPost2010Prop28
280
     0
102
RTVSPost2010PropOp28
 70
     1
102
RTVSPost2010Prop29
280
     1
102
RTVSPost2010PropOp29
 70
     1
102
RTVSPost2010Prop30
280
     1
102
RTVSPost2010PropOp30
 70
     1
102
RTVSPost2010Prop31
280
     0
102
RTVSPost2010PropOp31
 70
     1
102
RTVSPost2010Prop32
280
     0
102
RTVSPost2010PropOp32
 70
     1
102
RTVSPost2010Prop33
280
     0
102
RTVSPost2010PropOp33
 70
     1
102
RTVSPost2010Prop34
280
     0
102
RTVSPost2010PropOp34
 70
     1
102
RTVSPost2010Prop35
280
     0
102
RTVSPost2010PropOp35
 70
     1
102
RTVSPost2010Prop36
280
     0
102
RTVSPost2010PropOp36
 70
     1
102
RTVSPost2010Prop37
 90
       50
102
RTVSPost2010PropOp37
 70
     1
102
RTVSPost2010Prop38
140
0.0
102
RTVSPost2010PropOp38
 70
     1
102
RTVSPost2010Prop39
140
1.0
102
RTVSPost2010PropOp39
 70
     1
102
RTVSPost2010Prop40
 90
        0
102
RTVSPost2010PropOp40
 70
     1
102
RTVSPost2010Prop41ColorIndex
 90
       18
102
RTVSPost2010Prop41ColorRGB
 90
        0
102
RTVSPost2010PropOp41
 70
     1
102
RTVSPost2010Prop42
 90
       50
102
RTVSPost2010PropOp42
 70
     1
102
RTVSPost2010Prop43
 90
        3
102
RTVSPost2010PropOp43
 70
     1
102
RTVSPost2010Prop44ColorIndex
 90
        5
102
RTVSPost2010Prop44ColorRGB
 90
      255
102
RTVSPost2010PropOp44
 70
     1
102
RTVSPost2010Prop45
280
     0
102
RTVSPost2010PropOp45
 70
     1
102
RTVSPost2010Prop46
 90
       50
102
RTVSPost2010PropOp46
 70
     1
102
RTVSPost2010Prop47
 90
       50
102
RTVSPost2010PropOp47
 70
     1
102
RTVSPost2010Prop48
 90
       50
102
RTVSPost2010PropOp48
 70
     1
102
RTVSPost2010Prop49
280
     0
102
RTVSPost2010PropOp49
 70
     1
102
RTVSPost2010Prop50
 90
       50
102
RTVSPost2010PropOp50
 70
     1
102
RTVSPost2010Prop51ColorIndex
 90
      256
102
RTVSPost2010Prop51ColorRGB
 90
-16777216
102
RTVSPost2010PropOp51
 70
     0
102
RTVSPost2010Prop52
140
1.0
102
RTVSPost2010PropOp52
 70
     0
102
RTVSPost2010Prop53
 90
        2
102
RTVSPost2010PropOp53
 70
     1
102
RTVSPost2010Prop54
  1
strokes_ogs.tif
102
RTVSPost2010PropOp54
 70
     1
102
RTVSPost2010Prop55
280
     0
102
RTVSPost2010PropOp55
 70
     1
102
RTVSPost2010Prop56
140
1.0
102
RTVSPost2010PropOp56
 70
     1
102
RTVSPost2010Prop57
140
1.0
102
RTVSPost2010PropOp57
 70
     1
  0
XRECORD
  5
282
102
{ACAD_REACTORS
330
281
102
}
330
281
100
AcDbXrecord
280
     1
102
RTVSPost2010Prop28
280
     0
102
RTVSPost2010PropOp28
 70
     1
102
RTVSPost2010Prop29
280
     1
102
RTVSPost2010PropOp29
 70
     1
102
RTVSPost2010Prop30
280
     1
102
RTVSPost2010PropOp30
 70
     1
102
RTVSPost2010Prop31
280
     0
102
RTVSPost2010PropOp31
 70
     1
102
RTVSPost2010Prop32
280
     0
102
RTVSPost2010PropOp32
 70
     1
102
RTVSPost2010Prop33
280
     0
102
RTVSPost2010PropOp33
 70
     1
102
RTVSPost2010Prop34
280
     0
102
RTVSPost2010PropOp34
 70
     1
102
RTVSPost2010Prop35
280
     0
102
RTVSPost2010PropOp35
 70
     1
102
RTVSPost2010Prop36
280
     0
102
RTVSPost2010PropOp36
 70
     1
102
RTVSPost2010Prop37
 90
       50
102
RTVSPost2010PropOp37
 70
     1
102
RTVSPost2010Prop38
140
0.0
102
RTVSPost2010PropOp38
 70
     1
102
RTVSPost2010Prop39
140
1.0
102
RTVSPost2010PropOp39
 70
     1
102
RTVSPost2010Prop40
 90
        0
102
RTVSPost2010PropOp40
 70
     1
102
RTVSPost2010Prop41ColorIndex
 90
       18
102
RTVSPost2010Prop41ColorRGB
 90
        0
102
RTVSPost2010PropOp41
 70
     1
102
RTVSPost2010Prop42
 90
       50
102
RTVSPost2010PropOp42
 70
     1
102
RTVSPost2010Prop43
 90
        3
102
RTVSPost2010PropOp43
 70
     1
102
RTVSPost2010Prop44ColorIndex
 90
        5
102
RTVSPost2010Prop44ColorRGB
 90
      255
102
RTVSPost2010PropOp44
 70
     1
102
RTVSPost2010Prop45
280
     0
102
RTVSPost2010PropOp45
 70
     1
102
RTVSPost2010Prop46
 90
       50
102
RTVSPost2010PropOp46
 70
     1
102
RTVSPost2010Prop47
 90
       50
102
RTVSPost2010PropOp47
 70
     1
102
RTVSPost2010Prop48
 90
       50
102
RTVSPost2010PropOp48
 70
     1
102
RTVSPost2010Prop49
280
     0
102
RTVSPost2010PropOp49
 70
     1
102
RTVSPost2010Prop50
 90
       50
102
RTVSPost2010PropOp50
 70
     1
102
RTVSPost2010Prop51ColorIndex
 90
      256
102
RTVSPost2010Prop51ColorRGB
 90
-16777216
102
RTVSPost2010PropOp51
 70
     0
102
RTVSPost2010Prop52
140
1.0
102
RTVSPost2010PropOp52
 70
     0
102
RTVSPost2010Prop53
 90
        2
102
RTVSPost2010PropOp53
 70
     1
102
RTVSPost2010Prop54
  1
strokes_ogs.tif
102
RTVSPost2010PropOp54
 70
     1
102
RTVSPost2010Prop55
280
     0
102
RTVSPost2010PropOp55
 70
     1
102
RTVSPost2010Prop56
140
1.0
102
RTVSPost2010PropOp56
 70
     1
102
RTVSPost2010Prop57
140
1.0
102
RTVSPost2010PropOp57
 70
     1
  0
XRECORD
  5
284
102
{ACAD_REACTORS
330
283
102
}
330
283
100
AcDbXrecord
280
     1
102
RTVSPost2010Prop28
280
     0
102
RTVSPost2010PropOp28
 70
     1
102
RTVSPost2010Prop29
280
     1
102
RTVSPost2010PropOp29
 70
     1
102
RTVSPost2010Prop30
280
     1
102
RTVSPost2010PropOp30
 70
     1
102
RTVSPost2010Prop31
280
     0
102
RTVSPost2010PropOp31
 70
     1
102
RTVSPost2010Prop32
280
     0
102
RTVSPost2010PropOp32
 70
     1
102
RTVSPost2010Prop33
280
     0
102
RTVSPost2010PropOp33
 70
     1
102
RTVSPost2010Prop34
280
     0
102
RTVSPost2010PropOp34
 70
     1
102
RTVSPost2010Prop35
280
     0
102
RTVSPost2010PropOp35
 70
     1
102
RTVSPost2010Prop36
280
     0
102
RTVSPost2010PropOp36
 70
     1
102
RTVSPost2010Prop37
 90
       50
102
RTVSPost2010PropOp37
 70
     1
102
RTVSPost2010Prop38
140
0.0
102
RTVSPost2010PropOp38
 70
     1
102
RTVSPost2010Prop39
140
1.0
102
RTVSPost2010PropOp39
 70
     1
102
RTVSPost2010Prop40
 90
        0
102
RTVSPost2010PropOp40
 70
     1
102
RTVSPost2010Prop41ColorIndex
 90
       18
102
RTVSPost2010Prop41ColorRGB
 90
        0
102
RTVSPost2010PropOp41
 70
     1
102
RTVSPost2010Prop42
 90
       50
102
RTVSPost2010PropOp42
 70
     1
102
RTVSPost2010Prop43
 90
        3
102
RTVSPost2010PropOp43
 70
     1
102
RTVSPost2010Prop44ColorIndex
 90
        5
102
RTVSPost2010Prop44ColorRGB
 90
      255
102
RTVSPost2010PropOp44
 70
     1
102
RTVSPost2010Prop45
280
     0
102
RTVSPost2010PropOp45
 70
     1
102
RTVSPost2010Prop46
 90
       50
102
RTVSPost2010PropOp46
 70
     1
102
RTVSPost2010Prop47
 90
       50
102
RTVSPost2010PropOp47
 70
     1
102
RTVSPost2010Prop48
 90
       50
102
RTVSPost2010PropOp48
 70
     1
102
RTVSPost2010Prop49
280
     0
102
RTVSPost2010PropOp49
 70
     1
102
RTVSPost2010Prop50
 90
       50
102
RTVSPost2010PropOp50
 70
     1
102
RTVSPost2010Prop51ColorIndex
 90
      256
102
RTVSPost2010Prop51ColorRGB
 90
-16777216
102
RTVSPost2010PropOp51
 70
     0
102
RTVSPost2010Prop52
140
1.0
102
RTVSPost2010PropOp52
 70
     0
102
RTVSPost2010Prop53
 90
        2
102
RTVSPost2010PropOp53
 70
     1
102
RTVSPost2010Prop54
  1
strokes_ogs.tif
102
RTVSPost2010PropOp54
 70
     1
102
RTVSPost2010Prop55
280
     0
102
RTVSPost2010PropOp55
 70
     1
102
RTVSPost2010Prop56
140
1.0
102
RTVSPost2010PropOp56
 70
     1
102
RTVSPost2010Prop57
140
1.0
102
RTVSPost2010PropOp57
 70
     1
  0
XRECORD
  5
286
102
{ACAD_REACTORS
330
285
102
}
330
285
100
AcDbXrecord
280
     1
102
RTVSPost2010Prop28
280
     0
102
RTVSPost2010PropOp28
 70
     1
102
RTVSPost2010Prop29
280
     1
102
RTVSPost2010PropOp29
 70
     1
102
RTVSPost2010Prop30
280
     1
102
RTVSPost2010PropOp30
 70
     1
102
RTVSPost2010Prop31
280
     0
102
RTVSPost2010PropOp31
 70
     1
102
RTVSPost2010Prop32
280
     0
102
RTVSPost2010PropOp32
 70
     1
102
RTVSPost2010Prop33
280
     0
102
RTVSPost2010PropOp33
 70
     1
102
RTVSPost2010Prop34
280
     0
102
RTVSPost2010PropOp34
 70
     1
102
RTVSPost2010Prop35
280
     0
102
RTVSPost2010PropOp35
 70
     1
102
RTVSPost2010Prop36
280
     0
102
RTVSPost2010PropOp36
 70
     1
102
RTVSPost2010Prop37
 90
       50
102
RTVSPost2010PropOp37
 70
     1
102
RTVSPost2010Prop38
140
0.0
102
RTVSPost2010PropOp38
 70
     1
102
RTVSPost2010Prop39
140
1.0
102
RTVSPost2010PropOp39
 70
     1
102
RTVSPost2010Prop40
 90
        0
102
RTVSPost2010PropOp40
 70
     1
102
RTVSPost2010Prop41ColorIndex
 90
       18
102
RTVSPost2010Prop41ColorRGB
 90
        0
102
RTVSPost2010PropOp41
 70
     1
102
RTVSPost2010Prop42
 90
       50
102
RTVSPost2010PropOp42
 70
     1
102
RTVSPost2010Prop43
 90
        3
102
RTVSPost2010PropOp43
 70
     1
102
RTVSPost2010Prop44ColorIndex
 90
        5
102
RTVSPost2010Prop44ColorRGB
 90
      255
102
RTVSPost2010PropOp44
 70
     1
102
RTVSPost2010Prop45
280
     0
102
RTVSPost2010PropOp45
 70
     1
102
RTVSPost2010Prop46
 90
       50
102
RTVSPost2010PropOp46
 70
     1
102
RTVSPost2010Prop47
 90
       50
102
RTVSPost2010PropOp47
 70
     1
102
RTVSPost2010Prop48
 90
       50
102
RTVSPost2010PropOp48
 70
     1
102
RTVSPost2010Prop49
280
     0
102
RTVSPost2010PropOp49
 70
     1
102
RTVSPost2010Prop50
 90
       50
102
RTVSPost2010PropOp50
 70
     1
102
RTVSPost2010Prop51ColorIndex
 90
      256
102
RTVSPost2010Prop51ColorRGB
 90
-16777216
102
RTVSPost2010PropOp51
 70
     0
102
RTVSPost2010Prop52
140
1.0
102
RTVSPost2010PropOp52
 70
     0
102
RTVSPost2010Prop53
 90
        2
102
RTVSPost2010PropOp53
 70
     1
102
RTVSPost2010Prop54
  1
strokes_ogs.tif
102
RTVSPost2010PropOp54
 70
     1
102
RTVSPost2010Prop55
280
     0
102
RTVSPost2010PropOp55
 70
     1
102
RTVSPost2010Prop56
140
1.0
102
RTVSPost2010PropOp56
 70
     1
102
RTVSPost2010Prop57
140
1.0
102
RTVSPost2010PropOp57
 70
     1
  0
XRECORD
  5
288
102
{ACAD_REACTORS
330
287
102
}
330
287
100
AcDbXrecord
280
     1
102
RTVSPost2010Prop28
280
     0
102
RTVSPost2010PropOp28
 70
     1
102
RTVSPost2010Prop29
280
     1
102
RTVSPost2010PropOp29
 70
     1
102
RTVSPost2010Prop30
280
     1
102
RTVSPost2010PropOp30
 70
     1
102
RTVSPost2010Prop31
280
     0
102
RTVSPost2010PropOp31
 70
     1
102
RTVSPost2010Prop32
280
     0
102
RTVSPost2010PropOp32
 70
     1
102
RTVSPost2010Prop33
280
     0
102
RTVSPost2010PropOp33
 70
     1
102
RTVSPost2010Prop34
280
     0
102
RTVSPost2010PropOp34
 70
     1
102
RTVSPost2010Prop35
280
     0
102
RTVSPost2010PropOp35
 70
     1
102
RTVSPost2010Prop36
280
     0
102
RTVSPost2010PropOp36
 70
     1
102
RTVSPost2010Prop37
 90
       50
102
RTVSPost2010PropOp37
 70
     1
102
RTVSPost2010Prop38
140
0.0
102
RTVSPost2010PropOp38
 70
     1
102
RTVSPost2010Prop39
140
1.0
102
RTVSPost2010PropOp39
 70
     1
102
RTVSPost2010Prop40
 90
        0
102
RTVSPost2010PropOp40
 70
     1
102
RTVSPost2010Prop41ColorIndex
 90
       18
102
RTVSPost2010Prop41ColorRGB
 90
        0
102
RTVSPost2010PropOp41
 70
     1
102
RTVSPost2010Prop42
 90
       50
102
RTVSPost2010PropOp42
 70
     1
102
RTVSPost2010Prop43
 90
        3
102
RTVSPost2010PropOp43
 70
     1
102
RTVSPost2010Prop44ColorIndex
 90
        5
102
RTVSPost2010Prop44ColorRGB
 90
      255
102
RTVSPost2010PropOp44
 70
     1
102
RTVSPost2010Prop45
280
     0
102
RTVSPost2010PropOp45
 70
     1
102
RTVSPost2010Prop46
 90
       50
102
RTVSPost2010PropOp46
 70
     1
102
RTVSPost2010Prop47
 90
       50
102
RTVSPost2010PropOp47
 70
     1
102
RTVSPost2010Prop48
 90
       50
102
RTVSPost2010PropOp48
 70
     1
102
RTVSPost2010Prop49
280
     0
102
RTVSPost2010PropOp49
 70
     1
102
RTVSPost2010Prop50
 90
       50
102
RTVSPost2010PropOp50
 70
     1
102
RTVSPost2010Prop51ColorIndex
 90
      256
102
RTVSPost2010Prop51ColorRGB
 90
-16777216
102
RTVSPost2010PropOp51
 70
     0
102
RTVSPost2010Prop52
140
1.0
102
RTVSPost2010PropOp52
 70
     0
102
RTVSPost2010Prop53
 90
        2
102
RTVSPost2010PropOp53
 70
     1
102
RTVSPost2010Prop54
  1
strokes_ogs.tif
102
RTVSPost2010PropOp54
 70
     1
102
RTVSPost2010Prop55
280
     0
102
RTVSPost2010PropOp55
 70
     1
102
RTVSPost2010Prop56
140
1.0
102
RTVSPost2010PropOp56
 70
     1
102
RTVSPost2010Prop57
140
1.0
102
RTVSPost2010PropOp57
 70
     1
  0
XRECORD
  5
28A
102
{ACAD_REACTORS
330
289
102
}
330
289
100
AcDbXrecord
280
     1
102
RTVSPost2010Prop28
280
     0
102
RTVSPost2010PropOp28
 70
     1
102
RTVSPost2010Prop29
280
     1
102
RTVSPost2010PropOp29
 70
     1
102
RTVSPost2010Prop30
280
     1
102
RTVSPost2010PropOp30
 70
     1
102
RTVSPost2010Prop31
280
     0
102
RTVSPost2010PropOp31
 70
     1
102
RTVSPost2010Prop32
280
     0
102
RTVSPost2010PropOp32
 70
     1
102
RTVSPost2010Prop33
280
     0
102
RTVSPost2010PropOp33
 70
     1
102
RTVSPost2010Prop34
280
     0
102
RTVSPost2010PropOp34
 70
     1
102
RTVSPost2010Prop35
280
     0
102
RTVSPost2010PropOp35
 70
     1
102
RTVSPost2010Prop36
280
     0
102
RTVSPost2010PropOp36
 70
     1
102
RTVSPost2010Prop37
 90
       50
102
RTVSPost2010PropOp37
 70
     1
102
RTVSPost2010Prop38
140
0.0
102
RTVSPost2010PropOp38
 70
     1
102
RTVSPost2010Prop39
140
1.0
102
RTVSPost2010PropOp39
 70
     1
102
RTVSPost2010Prop40
 90
        0
102
RTVSPost2010PropOp40
 70
     1
102
RTVSPost2010Prop41ColorIndex
 90
       18
102
RTVSPost2010Prop41ColorRGB
 90
        0
102
RTVSPost2010PropOp41
 70
     1
102
RTVSPost2010Prop42
 90
       50
102
RTVSPost2010PropOp42
 70
     1
102
RTVSPost2010Prop43
 90
        3
102
RTVSPost2010PropOp43
 70
     1
102
RTVSPost2010Prop44ColorIndex
 90
        5
102
RTVSPost2010Prop44ColorRGB
 90
      255
102
RTVSPost2010PropOp44
 70
     1
102
RTVSPost2010Prop45
280
     0
102
RTVSPost2010PropOp45
 70
     1
102
RTVSPost2010Prop46
 90
       50
102
RTVSPost2010PropOp46
 70
     1
102
RTVSPost2010Prop47
 90
       50
102
RTVSPost2010PropOp47
 70
     1
102
RTVSPost2010Prop48
 90
       50
102
RTVSPost2010PropOp48
 70
     1
102
RTVSPost2010Prop49
280
     0
102
RTVSPost2010PropOp49
 70
     1
102
RTVSPost2010Prop50
 90
       50
102
RTVSPost2010PropOp50
 70
     1
102
RTVSPost2010Prop51ColorIndex
 90
      256
102
RTVSPost2010Prop51ColorRGB
 90
-16777216
102
RTVSPost2010PropOp51
 70
     0
102
RTVSPost2010Prop52
140
1.0
102
RTVSPost2010PropOp52
 70
     0
102
RTVSPost2010Prop53
 90
        2
102
RTVSPost2010PropOp53
 70
     1
102
RTVSPost2010Prop54
  1
strokes_ogs.tif
102
RTVSPost2010PropOp54
 70
     1
102
RTVSPost2010Prop55
280
     0
102
RTVSPost2010PropOp55
 70
     1
102
RTVSPost2010Prop56
140
1.0
102
RTVSPost2010PropOp56
 70
     1
102
RTVSPost2010Prop57
140
1.0
102
RTVSPost2010PropOp57
 70
     1
  0
XRECORD
  5
28C
102
{ACAD_REACTORS
330
28B
102
}
330
28B
100
AcDbXrecord
280
     1
102
RTVSPost2010Prop28
280
     0
102
RTVSPost2010PropOp28
 70
     1
102
RTVSPost2010Prop29
280
     1
102
RTVSPost2010PropOp29
 70
     1
102
RTVSPost2010Prop30
280
     1
102
RTVSPost2010PropOp30
 70
     1
102
RTVSPost2010Prop31
280
     0
102
RTVSPost2010PropOp31
 70
     1
102
RTVSPost2010Prop32
280
     0
102
RTVSPost2010PropOp32
 70
     1
102
RTVSPost2010Prop33
280
     0
102
RTVSPost2010PropOp33
 70
     1
102
RTVSPost2010Prop34
280
     0
102
RTVSPost2010PropOp34
 70
     1
102
RTVSPost2010Prop35
280
     0
102
RTVSPost2010PropOp35
 70
     1
102
RTVSPost2010Prop36
280
     0
102
RTVSPost2010PropOp36
 70
     1
102
RTVSPost2010Prop37
 90
       50
102
RTVSPost2010PropOp37
 70
     1
102
RTVSPost2010Prop38
140
0.0
102
RTVSPost2010PropOp38
 70
     1
102
RTVSPost2010Prop39
140
1.0
102
RTVSPost2010PropOp39
 70
     1
102
RTVSPost2010Prop40
 90
        0
102
RTVSPost2010PropOp40
 70
     1
102
RTVSPost2010Prop41ColorIndex
 90
       18
102
RTVSPost2010Prop41ColorRGB
 90
        0
102
RTVSPost2010PropOp41
 70
     1
102
RTVSPost2010Prop42
 90
       50
102
RTVSPost2010PropOp42
 70
     1
102
RTVSPost2010Prop43
 90
        3
102
RTVSPost2010PropOp43
 70
     1
102
RTVSPost2010Prop44ColorIndex
 90
        5
102
RTVSPost2010Prop44ColorRGB
 90
      255
102
RTVSPost2010PropOp44
 70
     1
102
RTVSPost2010Prop45
280
     0
102
RTVSPost2010PropOp45
 70
     1
102
RTVSPost2010Prop46
 90
       50
102
RTVSPost2010PropOp46
 70
     1
102
RTVSPost2010Prop47
 90
       50
102
RTVSPost2010PropOp47
 70
     1
102
RTVSPost2010Prop48
 90
       50
102
RTVSPost2010PropOp48
 70
     1
102
RTVSPost2010Prop49
280
     0
102
RTVSPost2010PropOp49
 70
     1
102
RTVSPost2010Prop50
 90
       50
102
RTVSPost2010PropOp50
 70
     1
102
RTVSPost2010Prop51ColorIndex
 90
      256
102
RTVSPost2010Prop51ColorRGB
 90
-16777216
102
RTVSPost2010PropOp51
 70
     0
102
RTVSPost2010Prop52
140
1.0
102
RTVSPost2010PropOp52
 70
     0
102
RTVSPost2010Prop53
 90
        2
102
RTVSPost2010PropOp53
 70
     1
102
RTVSPost2010Prop54
  1
strokes_ogs.tif
102
RTVSPost2010PropOp54
 70
     1
102
RTVSPost2010Prop55
280
     0
102
RTVSPost2010PropOp55
 70
     1
102
RTVSPost2010Prop56
140
1.0
102
RTVSPost2010PropOp56
 70
     1
102
RTVSPost2010Prop57
140
1.0
102
RTVSPost2010PropOp57
 70
     1
  0
XRECORD
  5
28E
102
{ACAD_REACTORS
330
28D
102
}
330
28D
100
AcDbXrecord
280
     1
102
RTVSPost2010Prop28
280
     0
102
RTVSPost2010PropOp28
 70
     1
102
RTVSPost2010Prop29
280
     1
102
RTVSPost2010PropOp29
 70
     1
102
RTVSPost2010Prop30
280
     1
102
RTVSPost2010PropOp30
 70
     1
102
RTVSPost2010Prop31
280
     0
102
RTVSPost2010PropOp31
 70
     1
102
RTVSPost2010Prop32
280
     0
102
RTVSPost2010PropOp32
 70
     1
102
RTVSPost2010Prop33
280
     0
102
RTVSPost2010PropOp33
 70
     1
102
RTVSPost2010Prop34
280
     0
102
RTVSPost2010PropOp34
 70
     1
102
RTVSPost2010Prop35
280
     0
102
RTVSPost2010PropOp35
 70
     1
102
RTVSPost2010Prop36
280
     0
102
RTVSPost2010PropOp36
 70
     1
102
RTVSPost2010Prop37
 90
       50
102
RTVSPost2010PropOp37
 70
     1
102
RTVSPost2010Prop38
140
0.0
102
RTVSPost2010PropOp38
 70
     1
102
RTVSPost2010Prop39
140
1.0
102
RTVSPost2010PropOp39
 70
     1
102
RTVSPost2010Prop40
 90
        0
102
RTVSPost2010PropOp40
 70
     1
102
RTVSPost2010Prop41ColorIndex
 90
       18
102
RTVSPost2010Prop41ColorRGB
 90
        0
102
RTVSPost2010PropOp41
 70
     1
102
RTVSPost2010Prop42
 90
       50
102
RTVSPost2010PropOp42
 70
     1
102
RTVSPost2010Prop43
 90
        3
102
RTVSPost2010PropOp43
 70
     1
102
RTVSPost2010Prop44ColorIndex
 90
        5
102
RTVSPost2010Prop44ColorRGB
 90
      255
102
RTVSPost2010PropOp44
 70
     1
102
RTVSPost2010Prop45
280
     0
102
RTVSPost2010PropOp45
 70
     1
102
RTVSPost2010Prop46
 90
       50
102
RTVSPost2010PropOp46
 70
     1
102
RTVSPost2010Prop47
 90
       50
102
RTVSPost2010PropOp47
 70
     1
102
RTVSPost2010Prop48
 90
       50
102
RTVSPost2010PropOp48
 70
     1
102
RTVSPost2010Prop49
280
     0
102
RTVSPost2010PropOp49
 70
     1
102
RTVSPost2010Prop50
 90
       50
102
RTVSPost2010PropOp50
 70
     1
102
RTVSPost2010Prop51ColorIndex
 90
      256
102
RTVSPost2010Prop51ColorRGB
 90
-16777216
102
RTVSPost2010PropOp51
 70
     0
102
RTVSPost2010Prop52
140
1.0
102
RTVSPost2010PropOp52
 70
     0
102
RTVSPost2010Prop53
 90
        2
102
RTVSPost2010PropOp53
 70
     1
102
RTVSPost2010Prop54
  1
strokes_ogs.tif
102
RTVSPost2010PropOp54
 70
     1
102
RTVSPost2010Prop55
280
     0
102
RTVSPost2010PropOp55
 70
     1
102
RTVSPost2010Prop56
140
1.0
102
RTVSPost2010PropOp56
 70
     1
102
RTVSPost2010Prop57
140
1.0
102
RTVSPost2010PropOp57
 70
     1
  0
ENDSEC
  0
EOF
